PrimaNota.ru - самый крупный в мире бесплатный архив песенных текстов, аккордов, табулатур и нот


Les Trois Accords - Les Trois Accords - таба, видео

Регистрация Запомнить меня
Войти через:  Facebook Google Twitter Vk Yandex Mail.ru

Les Trois Accords - Les Trois Accords - таба, видео

Печатать
Просмотров: 174
Уроки эстрадного вокала в Санкт-Петербурге
Artiste : Les Trois Accords
Titre : Dans mon Corps
Album : Épisode 3
Tablature : Maxime Zurden (max_cretak@hotmail.com)

J'adore le clip. J'ai appris la chanson a l'oreille plus tot aujourd'hui et je vous en 
part...

Accords :

    Am  Bm   C   D    Em  F   G
  --0---2----0---2----0---1---3--|
  --1---3----1---3----0---1---3--|
  --2---4----0---2----0---2---0--|
  --2---4----2---0----2---3---0--|
  --0---2----3--------2---3---2--|
  --------------------0---1---3--|


Intro

E --------------------------------------------------------|
B -----5--8-7-5-7-8---------------------------------------|
G -4-7--------------4-7-4---------4---5-4-----------------|
D ------------------------7-5-5-7---------7-5-4-----4-5-5-|
A ----------------------------------7-----------7-7-------|
E --------------------------------------------------------|

       C    D       G Gb    Em      A   B       D

E ------------------------------------------------|
B -----5--8-7-5-7-8-------------------------------|
G -4-7--------------4-7-4---------4---5-4-------5-|
D ------------------------7-5-5-7---------7-5-----|
A ----------------------------------7---------7---|
E ------------------------------------------------|


Couplet
-------
A  D  Em  C  D   x2

Refrain
-------
G  Em  C  D   x2

Pont
----
F  G  C  B  A  D  Em  A  B  C
F  G  C  B  A  D  Em  G

Couplet 2
---------
D  G  Am  F  G   x3

Refrain 2
---------
C  Am  F  G   x 3

Finale
------

       C    D       G Gb    Em      Am  Bm       Em F# G
E ---------------------------------------------------------|
B -----5--8-7-5-7-8----------------------------------------|
G -4-7--------------4-7-4---------4---5-4------------------|
D ------------------------7-5-5-7---------7-5-4-----4--5-5-|
A ----------------------------------7-----------7-7--------|
E ---------------------------------------------------------|


       C    D       G Gb    Em      C   D       G
E ------------------------------------------------|
B -----5--8-7-5-7-8-------------------------------|
G -4-7--------------4-7-4---------4---5-4---------|
D ------------------------7-5-5-7---------7-5-4-5-|
A ----------------------------------7-------------|
E ------------------------------------------------|


Si vous voyez une faute, faites-moi signe!
Добавлено: 18.04.2012
Другие материалы по этой песне:
  • Аккорды и текст

Страница создана 18.04.2012
http://primanota.ru/les-trois-accords/les-trois-accords-chords.htm
Привет, Гость.
Предлагаем пройти революционный курс по гитаре.
Подарок от PrimaNota.Ru, забирай!