PrimaNota.ru - самый крупный в мире бесплатный архив песенных текстов, аккордов, табулатур и нот


Les Savy Fav - Kiss Kiss Is Getting Old - таба, бас-таба, видео

Регистрация Запомнить меня
Войти через:  Facebook Google Twitter Vk Yandex Mail.ru

Les Savy Fav - Kiss Kiss Is Getting Old - таба, бас-таба, видео

Печатать
Просмотров: 129
Les Savy Fav - Kiss Kiss Is Getting Old.

INTRO

E||--------------------------|-------------------------|
B||--------------------------|-------------------------|
G||--------------------------|--x----------------------|
D||--------------------------|-------------------------|
A||--7--7-----7--7-----7--7--|-----7--7----------------|
E||--------------------------|--------------9--9--9----|

--------------------------|-------------------------|
--------------------------|-------------------------|
--------x-----------------|--x----------------------|
--------------------------|-------------------------|
--7--7-----7--7-----7--7--|-----7--7----------------|
--------------------------|--------------9--9--9----|

----------------------------|----------------------------|
----------------------------|----------------------------|
----------------------------|----------------------------|
---------7---------------7--|---------------7------------|
------7-----9--7------7-----|--9--7------7-----9--7------|
--10--------------10--------|--------10--------------10--|

---------------------------|----------------------------|
---------------------------|----------------------------|
---------------------------|----------------------------|
-----7---------------7-----|------------7---------------|
--7-----9--7------7-----9--|--7------7-----9--7---------|
--------------10-----------|-----10--------------10-----|

--------------------------|-------------------------|--------------------------|
--------------------------|-------------------------|--------------------------|
--------------------------|--x----------------------|--------x-----------------|
--------------------------|-------------------------|--------------------------|
--7--7-----7--7-----7--7--|-----7--7----------------|--7--7-----7--7-----7--7--|
--------------------------|--------------9--9--9----|--------------------------|

-------------------------|----------------------------|
-------------------------|----------------------------|
--x----------------------|----------------------------|
-------------------------|---------7---------------7--|
-----7--7----------------|------7-----9--7------7-----|
--------------9--9--9----|--10--------------10--------|

----------------------------|---------------------------|
----------------------------|---------------------------|
----------------------------|---------------------------|
---------------7------------|-----7---------------7-----|
--9--7------7-----9--7------|--7-----9--7------7-----9--|
--------10--------------10--|--------------10-----------|

                            VERSE
----------------------------|---------------------------|
----------------------------|--------4----------4--L----|
----------------------------|---------------------------|
------------7---------------|-----6----------6----------|
--7------7-----9--7---------|--4--------(4)-------------|
-----10--------------10-----|---------------------------|

--------------------------|---------------------------|
--------4--------7--L-----|--------4----------4--L----|
--------------------------|---------------------------|
-----6--------------------|-----6----------6----------|
--4--------4--7--------7--|--4--------(4)-------------|
--------------------------|---------------------------|

-------------------------|--------------------------|------------------------|
--------4--4S--7----5----|--------5--------5--------|--5--------5--7----5----|
-------------------------|-----6--------6--------6--|--------6---------------|
-----6-------------------|--7--------7--------7-----|-----7------------------|
--4----------------------|--------------------------|------------------------|
-------------------------|--------------------------|------------------------|

--------------------------|------------------------|---------------------------|
--------5--------5--------|--5--------5--7----5----|--------4----------4--L----|
-----6--------6--------6--|--------6---------------|---------------------------|
--7--------7--------7-----|-----7------------------|-----6----------6----------|
--------------------------|------------------------|--4--------(4)-------------|
--------------------------|------------------------|---------------------------|

--------------------------|---------------------------|
--------4--------7--L-----|--------4----------4--L----|
--------------------------|---------------------------|
-----6--------------------|-----6----------6----------|
--4--------4--7--------7--|--4--------(4)-------------|
--------------------------|---------------------------|

-------------------------|--------------------------|------------------------|
--------4--4S--7----5----|--------5--------5--------|--5--------5--7----5----|
-------------------------|-----6--------6--------6--|--------6---------------|
-----6-------------------|--7--------7--------7-----|-----7------------------|
--4----------------------|--------------------------|------------------------|
-------------------------|--------------------------|------------------------|

                                                       CHORUS
--------------------------|-----------------7---------|---------------------|
--------5--------5--------|--5--L-----7--8-----8--L\--|---------------------|
-----6--------6--------6--|--------6------------------|--12------------9----|
--7--------7--------7-----|-----7---------------------|---------------------|
--------------------------|---------------------------|---------------------|
--------------------------|---------------------------|---------------------|

---------------------|----------------------|
--10-----------------|--12b-----------------|
----------------9----|-----------------9----|
---------------------|----------------------|
---------------------|----------------------|
---------------------|----------------------|

-----12--12--12--12--12--12-12-12-12--|-----------------------|
--------------------------------------|-----------------------|
--------------------------------------|--12------------9------|
--------------------------------------|-----------------------|
--------------------------------------|-----------------------|
--------------------------------------|-----------------------|

---------------------|----------------------|
--10-----------------|--12b-----------------|
----------------9----|-----------------9----|
---------------------|----------------------|
---------------------|----------------------|
---------------------|----------------------|

-------------------------------------------------------|--(12)----------------|
-------------------------------------------------------|----------------------|
-------------------------------------------------------|----------------------|
-------------------------------------------------------|----------------------|
-------------------------------------------------------|----------------------|

----------------------|--------------------|--------------------|
---L------------12----|--------------------|--------------------|
----------------------|--9------------9----|--9b----------------|
----------------------|--------------------|--------------------|
----------------------|--------------------|--------------------|
----------------------|--------------------|--------------------|

--------------------|--12----------------|--------------------|
--12----------------|--------------------|--14----------------|
--------------------|--------------------|--------------------|
--------------------|--------------------|--------------------|
--------------------|--------------------|--------------------|
--------------------|--------------------|--------------------|

                      VERSE
--14--------12--------|---------------------------|--------------------------|
----------------------|--------4----------4--L----|--------4--------7--L-----|
----------------------|---------------------------|--------------------------|
----------------------|-----6----------6----------|-----6--------------------|
----------------------|--4--------(4)-------------|--4--------4--7--------7--|
----------------------|---------------------------|--------------------------|

---------------------------|-------------------------|
--------4----------4--L----|--------4--4S--7----5----|
---------------------------|-------------------------|
-----6----------6----------|-----6-------------------|
--4--------(4)-------------|--4----------------------|
---------------------------|-------------------------|

--------------------------|------------------------|--------------------------|
--------5--------5--------|--5--------5--7----5----|--------5--------5--------|
-----6--------6--------6--|--------6---------------|-----6--------6--------6--|
--7--------7--------7-----|-----7------------------|--7--------7--------7-----|
--------------------------|------------------------|--------------------------|
--------------------------|------------------------|--------------------------|

                            CHORUS
-----------------7---------|---------------------|---------------------|
--5--L-----7--8-----8--L\--|---------------------|--10-----------------|
--------6------------------|--12------------9----|----------------9----|
-----7---------------------|---------------------|---------------------|
---------------------------|---------------------|---------------------|
---------------------------|---------------------|---------------------|

----------------------|-----12--12--12--12--12--12-12-12-12-|
--12b-----------------|-------------------------------------|
-----------------9----|-------------------------------------|
----------------------|-------------------------------------|
----------------------|-------------------------------------|
----------------------|-------------------------------------|

---------------------|---------------------|----------------------|
---------------------|--10-----------------|--12b-----------------|
--12------------9----|----------------9----|-----------------9----|
---------------------|---------------------|----------------------|
---------------------|---------------------|----------------------|
---------------------|---------------------|----------------------|

-----12--12--12--12--12--12-12-12-12--|-------------------|
--------------------------------------|-------------------|
--------------------------------------|-------------------|
--------------------------------------|-------------------|
--------------------------------------|-------------------|
--------------------------------------|-------------------|

REST X 8 BARS

----------------------|----------------------|
-------10-------------|--12b-----------------|
-----------------9----|-----------------9----|
----------------------|----------------------|
----------------------|----------------------|
----------------------|----------------------|

                                            CHORUS
-----12--12--12--12--12--12-12-12-12--------|---------------------|
--------------------------------------------|---------------------|
--------------------------------------------|--12------------9----|
--------------------------------------------|---------------------|
--------------------------------------------|---------------------|
--------------------------------------------|---------------------|

---------------------|----------------------|
--10-----------------|--12b-----------------|
----------------9----|-----------------9----|
---------------------|----------------------|
---------------------|----------------------|
---------------------|----------------------|

-----12--12--12--12--12--12-12-12-12--|---------------------|
--------------------------------------|---------------------|
--------------------------------------|--12------------9----|
--------------------------------------|---------------------|
--------------------------------------|---------------------|
--------------------------------------|---------------------|

---------------------|----------------------|
--10-----------------|--12b-----------------|
----------------9----|-----------------9----|
---------------------|----------------------|
---------------------|----------------------|
---------------------|----------------------|

-----12--12--12--12--12--12-12-12-12--|-----------------------|
--------------------------------------|-----------------------|
--------------------------------------|--12------------9------|
--------------------------------------|-----------------------|
--------------------------------------|-----------------------|
--------------------------------------|-----------------------|

---------------------|----------------------|
--10-----------------|--12b-----------------|
----------------9----|-----------------9----|
---------------------|----------------------|
---------------------|----------------------|
---------------------|----------------------|

-----12--12--12--12--12--12--12--12--12---|---------------------|
------------------------------------------|---------------------|
------------------------------------------|--12------------9----|
------------------------------------------|---------------------|
------------------------------------------|---------------------|
------------------------------------------|---------------------|

---------------------|--------------------------|--------------------------|
--10-----------------|--5--5--5--5--5--5--5--5--|--2--2--2--2--2--2--2--2--|
----------------x----|--6--6--6--6--6--6--6--6--|--2--2--2--2--2--2--2--2--|
---------------------|--6--6--6--6--6--6--6--6--|--2--2--2--2--2--2--2--2--|
---------------------|--------------------------|--------------------------|
---------------------|--------------------------|--------------------------|

OUT-CHORUS, Another guitar plays F#5, D5, Db5, A5, F#5, D5, Db5, E5 underneath this.

--5--5--5--5--5--5--5--5--|--------------------------|
--7--7--7--7--7--7--7--7--|--7--7--7--7--7--7--7--7--|
--6--6--6--6--6--6--6--6--|--7--7--7--7--7--7--7--7--|
--------------------------|--7--7--7--7--7--7--7--7--|
--------------------------|--------------------------|
--------------------------|--------------------------|

--------------------------|--------------------------|
--5--5--5--5--5--5--5--5--|--2--2--2--2--2--2--2--2--|
--6--6--6--6--6--6--6--6--|--2--2--2--2--2--2--2--2--|
--6--6--6--6--6--6--6--6--|--2--2--2--2--2--2--2--2--|
--------------------------|--------------------------|
--------------------------|--------------------------|

--5--5--5--5--5--5--5--5--|--------------------------|
--7--7--7--7--7--7--7--7--|--7--7--7--7--7--7--7--7--|
--6--6--6--6--6--6--6--6--|--7--7--7--7--7--7--7--7--|
--------------------------|--7--7--7--7--7--7--7--7--|
--------------------------|--------------------------|
--------------------------|--------------------------|

--------------------------|--------------------------|
--5--5--5--5--5--5--5--5--|--2--2--2--2--2--2--2--2--|
--6--6--6--6--6--6--6--6--|--2--2--2--2--2--2--2--2--|
--6--6--6--6--6--6--6--6--|--2--2--2--2--2--2--2--2--|
--------------------------|--------------------------|
--------------------------|--------------------------|

--5--5--5--5--5--5--5--5--|--------------------------|
--7--7--7--7--7--7--7--7--|--7--7--7--7--7--7--7--7--|
--6--6--6--6--6--6--6--6--|--7--7--7--7--7--7--7--7--|
--------------------------|--7--7--7--7--7--7--7--7--|
--------------------------|--------------------------|
--------------------------|--------------------------|

--------------------------|--------------------------|
--5--5--5--5--5--5--5--5--|--2--2--2--2--2--2--2--2--|
--6--6--6--6--6--6--6--6--|--2--2--2--2--2--2--2--2--|
--6--6--6--6--6--6--6--6--|--2--2--2--2--2--2--2--2--|
--------------------------|--------------------------|
--------------------------|--------------------------|

--5--5--5--5--5--5--5--5--|--------------------------|
--7--7--7--7--7--7--7--7--|--7--7--7--7--7--7--7--7--|
--6--6--6--6--6--6--6--6--|--7--7--7--7--7--7--7--7--|
--------------------------|--7--7--7--7--7--7--7--7--|
--------------------------|--------------------------|
--------------------------|--------------------------|

--------------------------|--------------------------|
--5--5--5--5--5--5--5--5--|--2--2--2--2--2--2--2--2--|
--6--6--6--6--6--6--6--6--|--2--2--2--2--2--2--2--2--|
--6--6--6--6--6--6--6--6--|--2--2--2--2--2--2--2--2--|
--------------------------|--------------------------|
--------------------------|--------------------------|

--5--5--5--5--5--5--5--5--|--------------------------|
--7--7--7--7--7--7--7--7--|--7--7--7--7--7--7--7--7--|
--6--6--6--6--6--6--6--6--|--7--7--7--7--7--7--7--7--|
--------------------------|--7--7--7--7--7--7--7--7--|
--------------------------|--------------------------|
--------------------------|--------------------------|

--------------------------|--------------------------|
--5--5--5--5--5--5--5--5--|--2--2--2--2--2--2--2--2--|
--6--6--6--6--6--6--6--6--|--2--2--2--2--2--2--2--2--|
--6--6--6--6--6--6--6--6--|--2--2--2--2--2--2--2--2--|
--------------------------|--------------------------|
--------------------------|--------------------------|

--5--5--5--5--5--5--5--5--|--------------------------|
--7--7--7--7--7--7--7--7--|--7--7--7--7--7--7--7--7--|
--6--6--6--6--6--6--6--6--|--7--7--7--7--7--7--7--7--|
--------------------------|--7--7--7--7--7--7--7--7--|
--------------------------|--------------------------|
--------------------------|--------------------------|

--------------------------|--------------------------|-------------------||
--5--5--5--5--5--5--5--5--|--2--2--2--2--2--2--2--2--|--2----------------||
--6--6--6--6--6--6--6--6--|--2--2--2--2--2--2--2--2--|--2----------------||
--6--6--6--6--6--6--6--6--|--2--2--2--2--2--2--2--2--|--2----------------||
--------------------------|--0--0--0--0--0--0--0--0--|--0----------------||
--------------------------|--------------------------|-------------------||
Добавлено: 26.06.2015
Другие материалы по этой песне:

Страница создана 26.06.2015
http://primanota.ru/les-savy-fav/kiss-kiss-is-getting-old-chords.htm
Привет, Гость.
Предлагаем пройти революционный курс по гитаре.
Подарок от PrimaNota.Ru, забирай!