PrimaNota.ru - самый крупный в мире бесплатный архив песенных текстов, аккордов, табулатур и нот


Les Savy Fav - Asleepers Union - бас-таба, видео

Регистрация Запомнить меня
Войти через:  Facebook Google Twitter Vk Yandex Mail.ru

Les Savy Fav - Asleepers Union - бас-таба, видео

Печатать
Просмотров: 33
INTRO

G||--7----------------|---------------------|--9----------------|
D||--7----------------|--4------------------|--9----------------|
A||--5----------------|--4------------------|--7----------------|
E||-------------------|---------------------|--0----------------|

-------------------|--7----------------|---------------------|
--7----------------|--7----------------|--4------------------|
--4----------------|--5----------------|--4------------------|
--5----------------|-------------------|--2------------------|

--9----------------|-------------------|--7----------------|
--9----------------|--7----------------|--7----------------|
--7----------------|--4----------------|--5----------------|
--0----------------|--5----------------|-------------------|

---------------------|--9----------------|-------------------|
--4------------------|--9----------------|--7----------------|
--4------------------|--7----------------|--4----------------|
---------------------|--0----------------|--5----------------|

--7----------------|---------------------|--9----------------|
--7----------------|--4------------------|--9----------------|
--5----------------|--4------------------|--7----------------|
-------------------|---------------------|--0----------------|

-------------------|--7----------------|---------------------|
--7----------------|--7----------------|--4------2-----------|
--4----------------|--5----------------|--4------2-----------|
--5----------------|-------------------|--2------0-----------|

-------------------|-------------------|--7----------------|
-------------------|--7----------------|--7----------------|
-------------------|--4----------------|--5----------------|
-------------------|--5----------------|-------------------|

---------------------|-------------------|-------------------|
--4------------------|-------------------|--7----------------|
--4------------------|--7----------------|--4----------------|
---------------------|--0----------------|--5----------------|

--7----------------|---------------------|--9------------------|
--7----------------|--4------------------|--9------7-----------|
--5----------------|--4------------------|--7------4-----------|
-------------------|---------------------|--0------5-----------|

-------------------|--7----------------|---------------------|
-------------------|--7----------------|--4------------------|
-------------------|--5----------------|--4------------------|
-------------------|-------------------|---------------------|

--9----------------|-------------------|--7----------------|
--9----------------|--7----------------|--7----------------|
--7----------------|--4----------------|--5----------------|
--0----------------|--5----------------|-------------------|

---------------------|--------------------|--7----------------|
--4----2-------------|-----------7--------|--7----------------|
--4----2-------------|-----------4--------|--5----------------|
--2----0-------------|-----------5--------|-------------------|

-------------------|--------------------|-----------|
--4----------------|---------------9----|--7--------|
--4----------------|---------------7----|--4--------|
-------------------|---------------0----|--5--------|

--7---------------------------------|----------------------------------|
--7---------------------------------|--4-------------------------------|
--5---------------------------------|--4-------------------------------|
------------------------------------|----------------------------------|

-------------------------------------------------|-------------------|
--9----------------------------------------------|--7----------------|
--7----------------------------------------------|--4----------------|
--0----------------------------------------------|--5----------------|

--7-----------------|------------------------|--------------------|
--7--------4--------|------------------------|-----------7--------|
--5--------4--------|------------------------|--7--------4--------|
--------------------|------------------------|--0--------5--------|

-------------------|--7----------------|---------------------|
-------------------|--7----------------|--4------------------|
-------------------|--5----------------|--4-----------------|
-------------------|-------------------|---------------------|

                                       VERSE

--9----------------|-------------------|----------------------------------|
--9----------------|--7----------------|----------------------------------|
--7----------------|--4----------------|--9-------------------------------|
--0----------------|--5----------------|-------------------10------9------|

------------------------|-----------------------------------|
------------------------|-----------------------------------|
------------------------|--12----------------9--------------|
-------------------9----|---------------------------10------|

------------------------|-----------------------------------|
------------------------|-----------------------------------|
------------------------|--12----------------9--------------|
--9----------------9----|---------------------------10------|

------------------------|-----------------------------------|
------------------------|-----------------------------------|
------------------------|--12----------------9--------------|
--9----------------9----|---------------------------10------|

------------------------|-----------------------------------|
------------------------|-----------------------------------|
------------------------|--12----------------9--------------|
--9----------------9----|---------------------------10------|

------------------------|-----------------------------------|
------------------------|-----------------------------------|
------------------------|--12----------------9--------------|
--9----------------9----|---------------------------10------|

------------------------|-----------------------------------|
------------------------|-----------------------------------|
------------------------|--12----------------9--------------|
--9----------------9----|---------------------------10------|

------------------------|-----------------------------------|
------------------------|-----------------------------------|
------------------------|--12----------------9--------------|
--9----------------9----|---------------------------10------|

------------------------|---------------------------------|
------------------------|---------------------------------|
------------------------|---------------------------------|
--9----------------9----|--10----------------2------------|

------------------------|---------------------------------|
------------------------|---------------------------------|
------------------------|---------------------------------|
--5---------------------|--10----------------2------------|

------------------------|-----------------------------------|
------------------------|-----------------------------------|
------------------------|--12----------------9--------------|
--5---------------------|---------------------------10------|

------------------------|-----------------------------------|
------------------------|-----------------------------------|
------------------------|--12----------------9--------------|
--9----------------9----|---------------------------10------|

------------------------|-----------------------------------|
------------------------|-----------------------------------|
------------------------|--12----------------9--------------|
--9----------------9----|---------------------------10------|

------------------------|-----------------------------------|
------------------------|-----------------------------------|
------------------------|--12----------------9--------------|
--9----------------9----|---------------------------10------|

                         CHORUS
 
------------------------|-------------------|--10--10--10--12--12--13--13----|
------------------------|-------------------|--11--11--11--13--13--14--14----|
------------------------|-------------------|--------------------------------|
--9----------------9----|--5----------------|--------------------------------|

--------------------|--11--11--11--13--13--11--13--11--|--------------------|
--------------------|--12--12--12--14--14--12--14--12--|--------------------|
--------------------|----------------------------------|--------------------|
-------5------------|----------------------------------|-------5------------|

--11--11--11--10--10--11--10----|--------------------|
--12--12--12--11--11--12--11----|--------------------|
--------------------------------|--------------------|
--------------------------------|-------5------------|

--------------------------------|--------------------------------------------|
--12--12--12--11--9--11--11--9--|--------------------------------------------|
--------------------------------|--5--5--5--5--5--5--5--5--5--5--5--7--5--7--|
--------------------------------|--------------------------------------------|

--------------------------------------------|
--------------------------------------------|
--5--5--5--5--5--5--5--5--5--5--5--7--5--7--|
--------------------------------------------|

--------------------------------------------|
--------------------------------------------|
--5--5--5--5--5--5--5--5--5--5--5--7--5--7--|
--------------------------------------------|

--------------------------------------------|-------------------|
--------------------------------------------|-------------------|
--5--5--5--5--5--5--5--5--5--5--5--7--5--7--|-------------------|
--------------------------------------------|--5----------------|

--6--6--6--8--8--11--11----|--------------------|--6--6--6--8--8--11--13\----|
--7--7--7--9--9--12--12----|--------------------|--7--7--7--9--9--12--14\----|
---------------------------|--------------------|----------------------------|
---------------------------|-------5------------|----------------------------|

--------------------|--6--6--6--8--8--6--13----|--------------------|
--------------------|--7--7--7--9--9--7--14----|--------------------|
--------------------|--------------------------|--------------------|
-------5------------|--------------------------|-------5------------|

                                       OUTRO

---------------------------------------|-------------------|
--12--12--12--11--11--12--12--11--9----|--7----------------|
---------------------------------------|-------------------|
---------------------------------------|-------------------|

--6--6--6--7--7--7--6--7--|--9--------9--------|--7--7--7-------6--7--6--|
--------------------------|--------------------|-----------9-------------|
--------------------------|--------------------|-------------------------|
--------------------------|--------------------|-------------------------|

-------------------|--6--6--6--7--7--7--6--7--|--9--------9--------|
--7----------------|--------------------------|--------------------|
-------------------|--------------------------|--------------------|
-------------------|--------------------------|--------------------|

--7--7--7-------6--7--6--|-------------------|--6--6--6--7--7--7--6--7--|
-----------9-------------|--7----------------|--------------------------|
-------------------------|-------------------|--------------------------|
-------------------------|-------------------|--------------------------|

--9--------9--------|--7--7--7-------6--7--6--|-------------------|
--------------------|-----------9-------------|--7----------------|
--------------------|-------------------------|-------------------|
--------------------|-------------------------|-------------------|

--6--6--6--7--7--7--6--7--|--9--------9--------|--7--7--7-------6--7--6--|
--------------------------|--------------------|-----------9-------------|
--------------------------|--------------------|-------------------------|
--------------------------|--------------------|-------------------------|

--------------------------------------------|
--------------------------------------------|
--5--5--5--5--5--5--5--5--5--5--5--7--5--7--|
--------------------------------------------|

--------------------------------------------|
--------------------------------------------|
--5--5--5--5--5--5--5--5--5--5--5--7--5--7--|
--------------------------------------------|

--------------------------------------------|
--------------------------------------------|
--5--5--5--5--5--5--5--5--5--5--5--7--5--7--|
--------------------------------------------|

--------------------------------------------|------------------------|
--------------------------------------------|------------------------|
--5--5--5--5--5--5--5--5--5--5--5--7--5--7--|------------------------|
--------------------------------------------|------------------------|
Добавлено: 29.12.2015
Вам также может быть интересно:
Другие материалы по этой песне:
  • Аккорды и текст

Страница создана 29.12.2015
http://primanota.ru/les-savy-fav/asleepers-union-chords.htm
Привет, Гость.
Предлагаем пройти революционный курс по гитаре.
Подарок от PrimaNota.Ru, забирай!