PrimaNota.ru - самый крупный в мире бесплатный архив песенных текстов, аккордов, табулатур и нот


Les Rallizes Denudes - Night Of The Assassins - бас-таба, видео

Регистрация Запомнить меня
Войти через:  Facebook Google Twitter Vk Yandex Mail.ru

Les Rallizes Denudes - Night Of The Assassins - бас-таба, видео

Печатать
Просмотров: 219
Les Rallizes Denudes - Heavier than a Death in the Family

Tabbed by: Oziel Esparza
email: oclictis1@gmail.com
Artist: Les Rallizes Denudes
Song: Night of the Assassins
Album: Heavier than a Death in the Family

Tuning: Standard
CAPO: None

Here's one way to play it

G|---------------------------------------------------------------------------|
D|---------------------------------------------------------------------------|
A|-5-5----5-5----5-5----5---5-4--2-2-----2-2----2-2-----2---2/4-----REPEAT---|
E|------5------5------5---5------------2------2-------2---2------------------|

A variation

G|---------------------------------------------------------------------------|
D|---------------------------------------------------------------------------|
A|-5-5----5-5----5-5----5-7-5-4--2-2-----2-2----2-2-----2---2/4-----REPEAT---|
E|------5------5------5----------------2------2-------2---2------------------|




Here's an easier version

G|---------------------------------------------------------------------------|
D|---------------------------------------------------------------------------|
A|-3-3----3-3----3-3----3---3-2-0-0----0-0----0-0----0---0-2--------REPEAT---|
E|------3------3------3---3----------0------0------0---0---------------------|

This version's variation

G|---------------------------------------------------------------------------|
D|------------------------0--------------------------------------------------|
A|-3-3----3-3----3-3----3---3-2-0-0----0-0----0-0----0---0-2--------REPEAT---|
E|------3------3------3--------------0------0------0---0---------------------|

That's the main bass riff throuhgout the whole song, there may be some other variations
but the song is pretty long and it can be hard to catch any change due to the
intense feedback and noise. I wont be able to tab the chords played or the fretting
and shredding Mizutani Takashi does as I'm not that talented a guitarist. Maybe me
tabbing this will be a catalyst for others who are more experienced to try their
hand at it.
Добавлено: 11.05.2015
Вам также может быть интересно:
Другие материалы по этой песне:
  • Аккорды и текст

Страница создана 11.05.2015
http://primanota.ru/les-rallizes-denudes/night-of-assassins-chords.htm
Привет, Гость.
Предлагаем пройти революционный курс по гитаре.
Подарок от PrimaNota.Ru, забирай!