PrimaNota.ru - самый крупный в мире бесплатный архив песенных текстов, аккордов, табулатур и нот


Les Irresistibles - Sunshine And You - бас-таба, видео

Регистрация Запомнить меня
Войти через:  Facebook Google Twitter Vk Yandex Mail.ru

Les Irresistibles - Sunshine And You - бас-таба, видео

Печатать
Просмотров: 37
Уроки эстрадного вокала в Санкт-Петербурге
Tabbed by: 6METAL6BASSIST6
E-mail: petergriffinav@gmail.com

Tuning: EADG

0:15

G|------------------------------------------------------------------------------------------------|
D|8---------------8-------------------------7-----8---------------8-------------------------7-----|
A|------------------------8---------8-----8-------------------------------8---------8-----8-------|
E|------------------------------------------------------------------------------------------------|

G|------------------------------------------------------------------------------------------------|
D|8---------------8-------------------------7-----8---------------8-----------------------------7-|
A|------------------------8---------8-------------------------------------8---------8-------10----|
E|------------------------------------------------------------------------------------------------|

0:30

G|------------------------------------------------------------------------------------------------|
D|8-----8-----10--------------------7-------------8-----------10--------------------------------7-|
A|------------------------8-----8-----------5-----------------------------8---------8-----8-10----|
E|------------------------------------------------------------------------------------------------|

G|------------------------------------------------------------------------------------------------|
D|8-----------10----10----------------7-----------8-----8-----10----10----8-----8-----8-----8-----|
A|------------------------8-----------------5-----------------------------------------------------|
E|------------------------------------------------------------------------------------------------|

G|------------------------|
D|------------------------|
A|8-----8-----8-----8-----|
E|------------------------|

0:46

G|------------------------------------------------------------------------------------------------|
D|8-----------------8-\---7-----------------7-\---5-----------------5-----3-----------------------|
A|------------------------------------------------------------------------------------------8-\---|
E|------------------------------------------------------------------------------------------------|

G|------------------------------------------------------------------------------------------------|
D|------------------------5-----------------5-----------------------------------------3-----------|
A|3-----------------3-----------------------------7-----------5-----------3-----------------------|
E|------------------------------------------------------------------------------------------------|

1:02

G|------------------------------------------------------------------------------------------------|
D|8---------------8-------------------------7-----8---------------8-------------------------7-----|
A|------------------------8---------8-------------------------------------8---------8-----8-------|
E|------------------------------------------------------------------------------------------------|

G|------------------------------------------------------------------------------------------------|
D|8---------------8-------------------------7-----8---------------8-----------------------------7-|
A|------------------------8---------8-----8-------------------------------8---------8-----8-10----|
E|------------------------------------------------------------------------------------------------|

1:18

G|------------------------------------------------------------------------------------------------|
D|8-----8-----10--------------------7-------------8-----8-----10--------------------------------7-|
A|------------------------8-----------------5-----------------------------8---------8-----8-10----|
E|------------------------------------------------------------------------------------------------|

G|------------------------------------------------------------------------------------------------|
D|8-----------10----10--------------7-------------8-----------10----10----8-----8-----8-----8-----|
A|------------------------8-----8-----------5-----------------------------------------------------|
E|------------------------------------------------------------------------------------------------|

G|------------------------|
D|------------------------|
A|8-----8-----8-----8---/-|
E|------------------------|

1:34

G|------------------------------------------------------------------------------------------------|
D|------------------------------------------------------------------------------------------------|
A|10----------------10\---8-----8-----------8---/-10----------------10\---8-----8-----------8---/-|
E|------------------------------------------------------------------------------------------------|

G|------------------------------------------------------------------------------------------------|
D|------------------------------------------------10----------------------------------------10--9-|
A|10----10----------10----10----10----------10----------------------------------------------------|
E|------------------------------------------------------------------------------------------------|

1:51

G|------------------------------------------------------------------------------------------------|
D|8-----8-----10--------------------7-------------8-----8-----10----10--------------------------7-|
A|------------------------8---8-8-----------5-----------------------------8---------8-----8-10----|
E|------------------------------------------------------------------------------------------------|

G|------------------------------------------------------------------------------------------------|
D|8-----8-----10----10--------------7-------------8-----8-----10----10----8-----8-----8-----8-----|
A|------------------------8-----8-----------5-----------------------------------------------------|
E|------------------------------------------------------------------------------------------------|

G|------------------------------------------------|
D|7-----------------------------------------------|
A|------------------------------------------------|
E|------------------------------------------------|
Добавлено: 29.05.2016
Другие материалы по этой песне:
  • Аккорды и текст

Страница создана 29.05.2016
http://primanota.ru/les-irresistibles/sunshine-and-you-chords.htm
Привет, Гость.
Предлагаем пройти революционный курс по гитаре.
Подарок от PrimaNota.Ru, забирай!