PrimaNota.ru - самый крупный в мире бесплатный архив песенных текстов, аккордов, табулатур и нот


Les Irresistibles - Lands Of Shadow - бас-таба, видео

Регистрация Запомнить меня
Войти через:  Facebook Google Twitter Vk Yandex Mail.ru

Les Irresistibles - Lands Of Shadow - бас-таба, видео

Печатать
Просмотров: 39
Уроки эстрадного вокала в Санкт-Петербурге
Tabbed by: 6METAL6BASSIST6
E-mailpetergriffinav@gmail.com

Tuning: EADG

0:07

G|----------------------------------------------------------------|
D|--------5---------------------5---------5---------------------5-|
A|--------------------------3-5-----------------------------3-5---|
E|3---------------3---------------3---------------3---------------|

0:13

G|----------------------------------------------------------------|
D|------------5---3-------3-----\-1-----------1---0---------------|
A|--------------------------------------------------------5-\-----|
E|3---------------------------------------------------------------|

G|----------------------------------------------------------------|
D|------------5---3-------3-----\-1-----------1---0---------------|
A|--------------------------------------------------------5-----\-|
E|3---------------------------------------------------------------|

G|----------------------------------------------------------------|
D|--------------------------------------------------------5-------|
A|3---3-------3-------3---3---4---5---5-------5-------5-------5---|
E|----------------------------------------------------------------|

G|----------------------------------------------------------------|
D|----------------------------------------------------------------|
A|4---4-------4-------4-----------5---5---5---5---5---5---5---5---|
E|----------------------------------------------------------------|

0:37

G|----------------------------------------------------------------|
D|5-----------5---5---5---5---5-----------------------------------|
A|--------------------------------3-----------3---3---3-------3---|
E|----------------------------------------------------------------|

G|--------------------------------|
D|--------------------------------|
A|5-----------5---5---5-------5---|
E|--------------------------------|

0:46

G|----------------------------------------------------------------|
D|------------5---3-------3-----\-1-----------1---0---------------|
A|--------------------------------------------------------5-\-----|
E|3---------------------------------------------------------------|

G|----------------------------------------------------------------|
D|------------5---3-------3-------1-----------1---0---------------|
A|--------------------------------------------------------5-------|
E|3---------------------------------------------------------------|

G|----------------------------------------------------------------|
D|--------------------------------------------------------5-------|
A|----3-------3-------3---3---4---5---5-------5-------5-------5---|
E|----------------------------------------------------------------|

G|----------------------------------------------------------------|
D|----------------------------------------------------------------|
A|4---4-------4-------4-----------5---5---5---5---5---5---5---5---|
E|----------------------------------------------------------------|

1:11

G|----------------------------------------------------------------|
D|5-----------5---5---5---5---5-----------------------------------|
A|--------------------------------3-----------3---3---3-------3---|
E|----------------------------------------------------------------|

G|--------------------------------|
D|--------------------------------|
A|5-----------5---5---5-------5---|
E|--------------------------------|

1:18

G|----------------------------------------------------------------|
D|----------------------------------------5---------------5-------|
A|--------5---------------5-------3-----------6---3-----------6---|
E|3---3-------6---3-----------6-----------------------------------|

G|----------------------------------------------------------------|
D|----------------------------------------7---4-----------7---4---|
A|--------5---------------5-------5---------------5---------------|
E|3---3-------6---3-----------6-----------------------------------|

G|----------------------------------------------------------------|
D|----------------------------------------------------------------|
A|--------5---------------5---------------6---3-----------6---3---|
E|3-----------6---3---3-------6---4---4-----------4---4-----------|

G|----------------------------------------------------------------|
D|----------------------------------------------------------------|
A|--------6---3-----------6---3---5---5---5---5---5---5---5---5---|
E|4---4-----------4---4-------------------------------------------|

G|--------------------------------|
D|--------------------------------|
A|5---5---5---5---5---5---5---5---|
E|--------------------------------|

1:46

G|----------------------------------------------------------------|
D|----------------------------------------------------------------|
A|----------------------------------------------------------------|
E|----------------------------------------------------------------|

G|----------------------------------------------------------------|
D|--------5---------------------5---------5---------------------5-|
A|--------------------------3-5-----------------------------3-5---|
E|3---------------3---------------3---------------3---------------|

1:58

G|----------------------------------------------------------------|
D|------------5---3-------3---\---1-----------1---0---------------|
A|--------------------------------------------------------5-\-----|
E|3---------------------------------------------------------------|

G|----------------------------------------------------------------|
D|------------5---3-------3-----\-1-----------1---0---------------|
A|--------------------------------------------------------5-------|
E|3---------------------------------------------------------------|

G|----------------------------------------------------------------|
D|--------------------------------------------------------5-------|
A|3---3-------3-------3---3---4---5---5-------5-------5-------5---|
E|----------------------------------------------------------------|

G|----------------------------------------------------------------|
D|----------------------------------------------------------------|
A|4---4-------4-------4-----------5---5---5---5---5---5---5---5---|
E|----------------------------------------------------------------|

2:22

G|----------------------------------------------------------------|
D|5-----------5---5---5---5---5-----------------------------------|
A|--------------------------------3-----------3---3---3-------3---|
E|----------------------------------------------------------------|

G|--------------------------------|
D|--------------------------------|
A|5-----------5---5---5-------5---|
E|--------------------------------|

G|----------------------------------------------------------------|
D|----------------------------------------------------------------|
A|----------------------------------------------------------------|
E|----------------------------------------------------------------|

G|----------------------------------------------------------------|
D|--------5---------------------5---------5---------------------5-| x4 to fadeout.
A|--------------------------3-5-----------------------------3-5---|
E|3---------------3---------------3---------------3---------------|
Добавлено: 29.05.2016
Вам также может быть интересно:
Другие материалы по этой песне:
  • Аккорды и текст

Страница создана 29.05.2016
http://primanota.ru/les-irresistibles/lands-of-shadow-chords.htm
Привет, Гость.
Предлагаем пройти революционный курс по гитаре.
Подарок от PrimaNota.Ru, забирай!