PrimaNota.ru - самый крупный в мире бесплатный архив песенных текстов, аккордов, табулатур и нот


Les Innocents - Je Vais A Bang Bang - аккорды и текст, видео

Регистрация Запомнить меня
Войти через:  Facebook Google Twitter Vk Yandex Mail.ru

Les Innocents - Je Vais A Bang Bang - аккорды и текст, видео

Печатать
Просмотров: 81
Уроки эстрадного вокала в Санкт-Петербурге
Je Vais A Bang Bang
Les Innocents
-------------------------------------------------------------------------------
                              Les Innocents - Je Vais à Bang-bang
-------------------------------------------------------------------------------
Album : Fous À Lier (1992)
Tempo : 125
E-mail: gwendal.mollo@orange.fr
Tabbed by: newg

Riff 1      
   G                 D      Em         G                 D      Em
e |------3--5--3----|-5-----7---------|-----3--5--3-----|-2--3------------|
B |3--5------------3|-----------------|3--5------------3|-----------------|
G |-----------------|-----------------|-----------------|-----------------|
D |-----------------|-----------------|-----------------|-----------------|
A |-----------------|-----------------|-----------------|-----------------|
E |-----------------|-----------------|-----------------|-----------------|

riff 2 (+2 tons)
   A                  E     Fm         A                  E     Fm
e |------5--7--5----|-7-----9---------|-----5--7--5-----|-4--5------------|
B |5--7------------5|-----------------|5--7------------5|-----------------|
G |-----------------|-----------------|-----------------|-----------------|
D |-----------------|-----------------|-----------------|-----------------|
A |-----------------|-----------------|-----------------|-----------------|
E |-----------------|-----------------|-----------------|-----------------|


G
Riff 1 x2

G                   D            Em
mardi, le douze, tu vois je suis loin
G                              D        Em
des evening news du cours de l'or en baril
G                             D       Em
des ailes me poussent, j'attendrai demain
G                D    Em
Novacruz ou même Tamboril, qui sait ?

Riff 1 

G                       D       Em
dans le ciel d'août, un astre malin
G                       D              Em
trace ma route vers le fin fond du Brésil
Am          Bm  Am           Bm  
et je m'éloigne,mais je sais bien
    Am          Bm              C            D
que tu m'accompagnes dans cette chasse au destin

Refrain :
        G           C        G
je vais à Bang-Bang sécher au vent
    G                  C         D
mon cœur humide de ses rêves qui fondent
          G           C          G
m'échouer à Bang-Bang trouver le temps
  G                           C         D
d'attendre un guide qui n'est pas de ce monde, qui sait ?

Riff 1 qui sait ? Riff1

(G D Em)
vendredi treize tout me semble si loin
le vide, le malaise le pourquoi de l'exil
plus rien ne me pèse mon âme est un jardin
d'ébènes et d'aloès une jungle, un bidonville

Am          Bm  Am            Bm  
et je m'éloigne,pour savoir enfin
Am            Bm                C     D
tout ce qu'on gagne à n'être qu'en chemin

[Refrain]

Pont : G G G G (let ring)

Riff 2

   Bm               C#m        Bm             C#m
je sais que rien ne soigne les plaies de l'instinct
    Bm         C#m         D          E
mon pays de cocagne il est entre deux trains
   Bm             C#m        Bm           C#m
j'avance et je m'éloigne parfois je me souviens
      Bm         C#m      D            E
d'une tendre compagne devenue ange gardien


Refrain :
        A           D        A
je vais à Bang-Bang sécher au vent
    A                  D         E
mon cœur humide de ses rêves qui fondent
          A           D          A
m'échouer à Bang-Bang trouver le temps
  A                           D         E
d'attendre un guide qui n'est pas de ce monde

        A           D        A
je vais à Bang-Bang sécher au vent
    A                  D         E
mon cœur humide de ses rêves qui fondent
         A          D          A
je vais à Bang-Bang trouver le temps
  A                           D         E
d'attendre un guide qui n'est pas de ce monde

        A           D        A
je vais à Bang-Bang                x2

Riff 2 x2
Добавлено: 10.09.2013
Другие материалы по этой песне:
  • Аккорды и текст

Страница создана 10.09.2013
http://primanota.ru/les-innocents/je-vais-a-bang-bang-2-chords.htm
Привет, Гость.
Предлагаем пройти революционный курс по гитаре.
Подарок от PrimaNota.Ru, забирай!