PrimaNota.ru - самый крупный в мире бесплатный архив песенных текстов, аккордов, табулатур и нот


Les Fatals Picards - Punk A Chien - таба, видео

Регистрация Запомнить меня
Войти через:  Facebook Google Twitter Vk Yandex Mail.ru

Les Fatals Picards - Punk A Chien - таба, видео

Печатать
Просмотров: 94
"PUNK À CHIEN" - Fatal Picards

   C                 G                 A                 F
e|-----------------|-----------------|-----------------|-------------------------|
B|-----------------|-----------------|-----------------|-------------------------|
G|-5-5-5-5-5-5-5-5-|-----------------|-----------------|-10-10-10-10-10-10-10-10-|
D|-5-5-5-5-5-5-5-5-|-5-5-5-5-5-5-5-5-|-7-7-7-7-7-7-7-7-|-10-10-10-10-10-10-10-10-|  x2
A|-3-3-3-3-3-3-3-3-|-5-5-5-5-5-5-5-5-|-7-7-7-7-7-7-7-7-|--8--8--8--8--8--8--8--8-|
E|-----------------|-3-3-3-3-3-3-3-3-|-5-5-5-5-5-5-5-5-|-------------------------|

   C                 G                 A                 F     E   D   E
e|-----------------|-----------------|-----------------|-------------------|
B|-----------------|-----------------|-----------------|-------------------|
G|-5-5-5-5-5-5-5-5-|-----------------|-----------------|-10-10-9-9-7-7-9-9-|
D|-5-5-5-5-5-5-5-5-|-5-5-5-5-5-5-5-5-|-7-7-7-7-7-7-7-7-|-10-10-9-9-7-7-9-9-|  x1
A|-3-3-3-3-3-3-3-3-|-5-5-5-5-5-5-5-5-|-7-7-7-7-7-7-7-7-|--8--8-7-7-5-5-7-7-|
E|-----------------|-3-3-3-3-3-3-3-3-|-5-5-5-5-5-5-5-5-|-------------------|

   C                (C)                C                (C)
e|-----------------|-----------------|-----------------|-------------------|
B|-----------------|-----------------|-----------------|-------------------|
G|-5---------------|(5)--------------|-5---------------|(5)----------------|
D|-5---------------|(5)--------------|-5---------------|(5)----------------| x1
A|-3---------------|(3)--------------|-3---------------|(3)----------------|
E|-----------------|-----------------|-----------------|-------------------|
   Moi je suis...

   A                      E F   E F
e|-----------------|    |-----------------|
B|-----------------|    |-----------------|
G|-2---2-2---2-2-2-|    |-----------------|
D|-2---2-2---2-2-2-| x2 |-2/3-3-2/3-3-3-3-| x2
A|-0---0-0---0-0-0-|    |-2/3-3-2/3-3-3-3-|
E|-----------------|    |-0/1-1-0/1-1-1-1-|
   Mais mon chien...

   C                 G                 A                 F     E   D   E
e|-----------------|-----------------|-----------------|-------------------|
B|-----------------|-----------------|-----------------|-------------------|
G|-5-5-----5-5-----|-----------------|-----------------|-10-10-9-9-7-7-9-9-|
D|-5-5-----5-5-----|-5-5-----5-5-----|-7-7-----7-7-----|-10-10-9-9-7-7-9-9-| x1
A|-3-3-----3-3-----|-5-5-----5-5-----|-7-7-----7-7-----|--8--8-7-7-5-5-7-7-|
E|-----------------|-3-3-----3-3-----|-5-5-----5-5-----|-------------------|
   C'est bête...

   C                 G                 A                 F     E   D   E
e|-----------------|-----------------|-----------------|-------------------|
B|-----------------|-----------------|-----------------|-------------------|
G|-5-5-5-5-5-5-5-5-|-----------------|-----------------|-10-10-9-9-7-7-9-9-|
D|-5-5-5-5-5-5-5-5-|-5-5-5-5-5-5-5-5-|-7-7-7-7-7-7-7-7-|-10-10-9-9-7-7-9-9-|  x1
A|-3-3-3-3-3-3-3-3-|-5-5-5-5-5-5-5-5-|-7-7-7-7-7-7-7-7-|--8--8-7-7-5-5-7-7-|
E|-----------------|-3-3-3-3-3-3-3-3-|-5-5-5-5-5-5-5-5-|-------------------|

   SOLO
e|--------------------|----------------------|-------------------|------------------------|
B|--------------------|----------------------|-------------------|------------------------|
G|---------9---9-12---|-10---10-9/10/9---7---|---------------9---|-10---10-9/10/9---------|
D|-10---10------------|----------------------|-7---7-10---10-----|-------------------10---| x2
A|--------------------|----------------------|-------------------|------------------------|
E|--------------------|----------------------|-------------------|------------------------|

   C                 B                 A                 E
e|-----------------|-----------------|-----------------|-----------------|
B|-----------------|-----------------|-----------------|-----------------|
G|-5-5-5-5-5-5-5-5-|-4-4-4-4-4-4-4-4-|-2-2-2-2-2-2-2-2-|-----------------|
D|-5-5-5-5-5-5-5-5-|-4-4-4-4-4-4-4-4-|-2-2-2-2-2-2-2-2-|-2/3-3-2/3-3-3-3-| x1
A|-3-3-3-3-3-3-3-3-|-2-2-2-2-2-2-2-2-|-0-0-0-0-0-0-0-0-|-2/3-3-2/3-3-3-3-|
E|-----------------|-----------------|-----------------|-0/1-1-0/1-1-1-1-|

   C                 G                 A                 F
e|-----------------|-----------------|-----------------|-------------------------|
B|-----------------|-----------------|-----------------|-------------------------|
G|-5-5-5-5-5-5-5-5-|-----------------|-----------------|-10-10-10-10-10-10-10-10-|
D|-5-5-5-5-5-5-5-5-|-5-5-5-5-5-5-5-5-|-2-2-2-2-2-2-2-2-|-10-10-10-10-10-10-10-10-|
A|-3-3-3-3-3-3-3-3-|-5-5-5-5-5-5-5-5-|-2-2-2-2-2-2-2-2-|--8--8--8--8--8--8--8--8-|
E|-----------------|-3-3-3-3-3-3-3-3-|-0-0-0-0-0-0-0-0-|-------------------------|
   Punk à chat!


 ET CETERA
Добавлено: 26.11.2013
Другие материалы по этой песне:
  • Аккорды и текст

Страница создана 26.11.2013
http://primanota.ru/les-fatals-picards/punk-a-chien-chords.htm
Привет, Гость.
Предлагаем пройти революционный курс по гитаре.
Подарок от PrimaNota.Ru, забирай!