PrimaNota.ru - самый крупный в мире бесплатный архив песенных текстов, аккордов, табулатур и нот


Les Claypool - Phantom Patriot - бас-таба, видео

Регистрация Запомнить меня
Войти через:  Facebook Google Twitter Vk Yandex Mail.ru

Les Claypool - Phantom Patriot - бас-таба, видео

Печатать
Просмотров: 138
Уроки эстрадного вокала в Санкт-Петербурге
-------------------------------------------------------------------------------
			     Phantom Patriot - Les Claypool
-------------------------------------------------------------------------------

Tabbed By : MISFIT/666
e-mail:

Tuning: Standard

Intro:

G:--------7-----------------7-----------------7-----------------------------7------0-------|
D:--------7-----------------7-----------------7-----------0-----------------7--------------|
A:----7h8---8-----------7h8---8-----------7/8---8---7h8-----0-0-0/12\---7/8--8-------/15\--|
E:--7---------7-------7---------7-------7---------7-----x-------------7-------7-1/x-0------|


Chorus:

G:-------7-------------10-10-10-7-7h9-------7-------------10-10-10-7-7h9-----------------|
D:-------7-------------10-10-10-7-7h9-------7-------------10-10-10-7-7h9-----------------|
A:---7h8---8---8-----8------------------7h8---8---8-----8--------------------------------|
E:-7---------7---7-7------------------7---------7---7-7----------------------------------|
Repeat once.

Verse 1:

G:-------7---------------7---------------7------------0-----------7----------------------|
D:-------7---------------7---------------7------------------------7----------------------|
A:---7h8---8---------7h8---8---------7h8---8------------------7h8---8---1/18\------------|
E:-7---------7-----7---------7-----7---------7-1/15-x---15\x7---------7------------------|

Chorus 2 = Chorus 1 x2 with some improv. at the end.

Verse 2:

G:-------7---------------7---------------7-------------------------------7-----10--------|
D:-------7---------------7---------------7-------------------------------7-----10--------|
A:---7h8---8---------7h8---8---------7h8---8---0h2-x-----------------7h8---8-------------|
E:-7---------7-----7---------7-----7---------7-------2h3-2h3-3/15\-7---------7----12\----|

Chorus 3 = Chorus 2

Verse 3:

G:-------7---------------7-------------7-----------------------------7-----9h10----------|
D:-------7---------------7-------------7-----------------------------7-----9h10----------|
A:---7h8---8---------7h8---8-------7/8---8---------5h7-----3h5---7h8---8-----------------|
E:-7---------7-----7---------7---7---------7-5h7-x-----3h5-----7---------7---------------|

G:-------7---------------7----------------7---------------7-----6-6-7-9-9-10-10----------|
D:-------7---------------7-------*7-------7---------------7-----6-6-7-9-9-10-10----------|
A:---7h8---8---------7h8---8----------7h8---8---------7h8---8----------------------------|
E:-7---------7-----7---------7------7---------7-----7---------7--------------------------|

Outro:

G:-------7------------------------7-------------------------------7-----------------7----|
D:-------7------------------------7-------------------------------7-----------------7----|
A:---7h8---8---8----8----8----7h8---8---8----8----------------7h8---8---8----8----8------|
E:-7---------7---77---77---77---------7---77---77-7-7-8-7-8-7---------7---77---77--------|

G:-------7--------------------------------------7--------------10-10-9-9-7-7-9-9---------|
D:-------7--------------------------------------7--------------10-10-9-9-7-7-9-9---------|
A:---7h8---8---8----------------------------7h8---8---8----8-----------------------------|
E:-7---------7---77-4h5-7-4h5-7-4h5-7-13\-7---------7---77---7---------------------------|


G:-------7-------66-7-66-7-66-7-66-7-------7-------66-7-66-7-66-7-66-7-------------------|
D:-------7-------66-7-66-7-66-7-66-7-------7-------66-7-66-7-66-7-66-7-------------------|
A:---7h8---8---8-----------------------7h8---8---8---------------------------------------|
E:-7---------7-----------------------7---------7-----------------------------------------|
Repeat this part once

| /  slide up
| \  slide down
| h  hammer-on
| p  pull-off
| ~  vibrato
| +  harmonic
| x  Mute note
===============================================================================
Добавлено: 05.06.2012
Другие материалы по этой песне:
  • Аккорды и текст

Страница создана 05.06.2012
http://primanota.ru/les-claypool/phantom-patriot-chords.htm
Привет, Гость.
Предлагаем пройти революционный курс по гитаре.
Подарок от PrimaNota.Ru, забирай!