PrimaNota.ru - самый крупный в мире бесплатный архив песенных текстов, аккордов, табулатур и нот


Les Claypool - One Better - текст песни, бас-таба, видео

Регистрация Запомнить меня
Войти через:  Facebook Google Twitter Vk Yandex Mail.ru

Les Claypool - One Better - текст песни, бас-таба, видео

Печатать
Просмотров: 186
LES CLAYPOOL : ONE BETTER
from : of whales and woe


Intro
G------------------------------------------------------12-----------|
D------14----------12h14p12---------14----------12h14-----14--------|
A-------------------------------------------------------------------|
E--12-------12-12--------------12-------12-12-----------------------|

G ---------------------------------------------------------|
D -----14----------12h14--------12h14p12-------------------|
A ---------------------------------------14----------------|
E 12---------12-12----------------------------12/24\12-----|

Verse
G-------------------------------------------------------------------|
D-----------14------------------------------------------------------|
A-------13-----12-----10-10--10-10--12-12------------------0--------|
E--12----------------------------------------10-10-10--11-----------|

G--13------------------------------------------------------------|
D--14-----0--12p11h12p11h12p11----------------------12-----------|
A------------------------------12---10-10-9-9----------13\-------|
E------x---------------------------------------6/12--------------|x6


Chorus (“I'm gonna give you one better…”)
G-------------------------------------------------------------------|
D------------------------------------------5-----5------------------|
A--7--7-7-7-7-5--4-5--------5--------5-5-7---------5--4-4-4--4-5----|
E-----------------------4-5---5----5---------5-7--------------------|

G|---------------------------------------------------------------|
D|---------------------------------------------------------------|
A|---7--7-7-7-7-5--4-5------------------5-----5-5-5--7-----------|
E|------------------------4-5-5---4-5-5---5-7------------7\------|x2

and thats the song

have fun

_terp
Добавлено: 25.05.2012
Другие материалы по этой песне:

Страница создана 26.03.2012
http://primanota.ru/les-claypool/one-better-chords.htm
Привет, Гость.
Предлагаем пройти революционный курс по гитаре.
Подарок от PrimaNota.Ru, забирай!