PrimaNota.ru - самый крупный в мире бесплатный архив песенных текстов, аккордов, табулатур и нот


Les Claypool - Off-white Guilt - бас-таба, видео

Регистрация Запомнить меня
Войти через:  Facebook Google Twitter Vk Yandex Mail.ru

Les Claypool - Off-white Guilt - бас-таба, видео

Печатать
Просмотров: 52
Album closer. Fairly easy song.

Main riff
G|----------------------------|
D|------------2---------------|
A|-------4\-----4---1h2-------|
E|----------------------------|
B|-9\-2-x--2-2----2-----2-4h5-|

Bridge 1
G|-------------------------------------------------|
D|-------------------------------------------------|
A|-------------------------------------------------|
E|-------------------------------------------------|
B|-4-4-4--4-4-4--4-4-4--3-3-3--3-3-3--3-3-3--3-3-3-|

Bridge 2 Same as first

Bridge 3
G|-------------------------|
D|-------------------------|
A|-----6-----6-----6-----6-|
E|-------------------------|
B|-4-4---4-4---4-4---4-4---|

G|-------------------------|
D|-------------------------|
A|-----5-----5-----5-----5-|
E|-------------------------|
B|-3-3---3-3---3-3---3-3---|

Bridge 4 
G|--------------------------------------------------------|
D|-----------------5-5-5-7-7-7----------------5-5-5-7-7-7-|
A|-6-6-6-6-6-6-6-6------------5-5-5-5-5-5-5-5-------------|
E|--------------------------------------------------------| x2
B|--------------------------------------------------------|

G|--------------------------------------------------------|
D|-----------------5-5-5-7-7-7--4------4------4------4----|
A|-6-6-6-6-6-6-6-6-------------5-5-5--5-5-5--5-5-5--5-5-5-|
E|--------------------------------------------------------|
B|--------------------------------------------------------|

G|----------------|
D|-4/5////////----|
A|--5/6////////---|
E|----------------|
B|----------------|

That's pretty much the whole thing.
Добавлено: 12.12.2013
Другие материалы по этой песне:
  • Аккорды и текст

Страница создана 12.12.2013
http://primanota.ru/les-claypool/off-white-guilt-chords.htm
Привет, Гость.
Предлагаем пройти революционный курс по гитаре.
Подарок от PrimaNota.Ru, забирай!