PrimaNota.ru - самый крупный в мире бесплатный архив песенных текстов, аккордов, табулатур и нот


Les Claypool - Of Whales And Woe - текст песни, бас-таба, видео

Регистрация Запомнить меня
Войти через:  Facebook Google Twitter Vk Yandex Mail.ru

Les Claypool - Of Whales And Woe - текст песни, бас-таба, видео

Печатать
Просмотров: 96
Song: Of Whales and Woe
Artist: Les Claypool
Album: Of Whales and Woe

These are only the main riffs.  The order is too jumbled to be tabbed out correctly.  
is slapped.
I'm pretty sure about all of this...it's not my best tab, but it still is very very 
to what he's playing.

G-4-------4h5---x---------x----------------------------|
D-4-5-4h5-4h5-----------------------------x------------|
A---5---------x---5-5h6-x---2-2\-3-3\-3/5-x---6\-------|
E------------------------------------------------------|

G------------------------------------------------------|
D-6-------6h7---x--------x-----------------------------|
A-6-7-6h7------------------------------6---x-----------|
E------------x---7-7h8-x---2-2\-3-3\-2/6---x---6\------|

G-8-------8h9---x----------x-------------------------|
D---9-8h9-----x----------------------------9---------|
A-----------------9-9h10-x--5-5-6-6-6/10-x---10\-----|
E----------------------------------------------------|

G-6-------6h7---x-------------------------------|
D---5-6h7----------------------------6----------|
A-------------x---7-7h8-4-4-5-5-4/7---7\--------|
E-----------------------------------------------|

G-----------------------------------------------|
D--6----7----6----5----6----7----6----5---------|
A-----------------------------------------------|
E----xx---xx---xx---xx---xx---xx---xx-----------|
Добавлено: 25.07.2012
Другие материалы по этой песне:

Страница создана 07.04.2012
http://primanota.ru/les-claypool/of-whales-and-woe-chords.htm
Привет, Гость.
Предлагаем пройти революционный курс по гитаре.
Подарок от PrimaNota.Ru, забирай!