PrimaNota.ru - самый крупный в мире бесплатный архив песенных текстов, аккордов, табулатур и нот


Les Claypool - Nothin Ventured - бас-таба, видео

Регистрация Запомнить меня
Войти через:  Facebook Google Twitter Vk Yandex Mail.ru

Les Claypool - Nothin Ventured - бас-таба, видео

Печатать
Просмотров: 109
Song: Nothin' Ventured
Artist: Les Claypool
Album: Of Whales and Woe (2006)

Now, like every Claypool song, he does the little improvising fills.  I didn't tab every 
because there are hundreds.  These are all the riffs.  Listen to the song for the order.

Verse/Intro
G-10h12--------x---------------13--10h12-------x------------10---|
D-10h12----------------0h8h10--13--10h12---------------8h10------|
A-------1010-x---x8h10-------------------1010x---x8h10-----------|
E----------------------------------------------------------------|

G-----x----x----x----x-----|
D--------------------------|
A--10---10---10---10---10--|
E--------------------------|

Verse part Two
G-13h15--------x-------------------16--13h15-------x------------13---|
D-13h15-----------------11h13h15---16--13h15---------------11h13-----|
A-------1111-x---x11h13----------------------1111x---x11h13----------|
E--------------------------------------------------------------------|

G-16-15-14-13-12-11-------------------|
D-16-15-14-13-12-11-------------------|
A-------------------------------------|
E-------------------------------------|

Bass Solo/Interlude
G-------15----13----13-15-13----15------------15-13-16-15-13----13----------|
D----14----14----14----------14----14------14----------------16----15-13----|
A-13------------------------------------13-------------------------------16-|
E---------------------------------------------------------------------------|


G-------15-13-13----13-15-16-18-18-18-18-|
D----14----------14----------------------|
A-13-------------------------------------|
E----------------------------------------|


G-16-15-13----15-13-----------------------------|
D----------16-------16-15-13--------------------|
A----------------------------15-16-15-15-15-13\-|
E-----------------------------------------------|


G-------15-13-13----13-15-13----15----|
D----14----------14----------14----14-|
A-13----------------------------------|
E-------------------------------------|
Добавлено: 25.02.2012
Другие материалы по этой песне:
  • Аккорды и текст

Страница создана 25.02.2012
http://primanota.ru/les-claypool/nothin-ventured-chords.htm
Привет, Гость.
Предлагаем пройти революционный курс по гитаре.
Подарок от PrimaNota.Ru, забирай!