PrimaNota.ru - самый крупный в мире бесплатный архив песенных текстов, аккордов, табулатур и нот


Les Claypool - Lust Stings - бас-таба, видео

Регистрация Запомнить меня
Войти через:  Facebook Google Twitter Vk Yandex Mail.ru

Les Claypool - Lust Stings - бас-таба, видео

Печатать
Просмотров: 114
Lust Stings by Les Claypool (Of Whales and Woe - 2006)

Intro (1x)
g-------11-------|
d-11h13----13-13-|
a----------------|
e----------------|

Verse (Xx)
g-------------11-------|
d-11h13p11h13----13-13-|
a----------------------|
e----------------------|
  s           p   s  s

Verse variation
g-------------11----13p11-------|
d-11h13p11h13----13-------13-11-|
a-------------------------------|
e-------------------------------|
  s           p   s p     s

Chorus part 1
g-6-9-8-|
d-4-7-9-|
a-------|
e-------|

Chorus part 2 (x2)
g-6-9-8--------------------|
d-4-7-6-10-10-10-10p8------|
a---------------------10p8-|
e--------------------------|


Chorus part 3 (strum)
g-6-9--8-12-|
d-4-7--6-10-|
a-----------|
e-----------|

Enjoy!

auditek@gmail.com
Добавлено: 18.04.2012
Другие материалы по этой песне:
  • Аккорды и текст

Страница создана 18.04.2012
http://primanota.ru/les-claypool/lust-stings-chords.htm
Привет, Гость.
Предлагаем пройти революционный курс по гитаре.
Подарок от PrimaNota.Ru, забирай!