PrimaNota.ru - самый крупный в мире бесплатный архив песенных текстов, аккордов, табулатур и нот


Les Claypool - Carolina Rig - бас-таба, видео

Регистрация Запомнить меня
Войти через:  Facebook Google Twitter Vk Yandex Mail.ru

Les Claypool - Carolina Rig - бас-таба, видео

Печатать
Просмотров: 176
Les Claypool and the Holy Mackerel
Carolina Rig
Highball With The Devil

G-------------------------------------------------|
D--------------------------5------------------7/--|
A-------------------------------------------------|
E--0---0---0-0-0----/3------0--t3--/5--5----------|

G-------------------------------------------|
D----------------------5--------------------|
A-------------------------7--p5-------------|
E--0----0----0-0-0--------------7--5---0----|

G-------------------------------------------------|
D--------------------------5------------------7/--|
A-------------------------------------------------|
E--0---0---0-0-0----/3------0--t3--/5--5----------|

G-------------------------------------------|
D----------------------5--------------------|
A-------------------------7--p5-------------|
E--0----0----0-0-0--------------7--5---0----|
Добавлено: 18.07.2012
Другие материалы по этой песне:
  • Аккорды и текст

Страница создана 18.07.2012
http://primanota.ru/les-claypool/carolina-rig-chords.htm
Привет, Гость.
Предлагаем пройти революционный курс по гитаре.
Подарок от PrimaNota.Ru, забирай!