PrimaNota.ru - самый крупный в мире бесплатный архив песенных текстов, аккордов, табулатур и нот


Les Claypool - Amanitas - бас-таба, видео

Регистрация Запомнить меня
Войти через:  Facebook Google Twitter Vk Yandex Mail.ru

Les Claypool - Amanitas - бас-таба, видео

Печатать
Просмотров: 111
Уроки эстрадного вокала в Санкт-Петербурге
-------------------------------------------------------------------------------
			     Amanitas - Les Claypool
-------------------------------------------------------------------------------

Tabbed By : Brandon (Potato)
e-mail: schurman_sk8@hotmail.com

Tuning: Standard 
Turn on some wah and it should sound something like the song. 
although les may have some other effects on as well. This is the basic pattern of the song. 
There a few short bass fills every now and then...

                         |First Ending    |Second Ending
G|---------8---------8---|-99--9h10--10p9-|xx---xx---------------------------|
D|----------10~--8h10-9--|-99--9h10--10p9.|xx---xx--------------------------.|
A|7-7--8h10--------------|---------------.|xx---xx--------------------------.|
E|-----------------------|----------------|----------------------------------|
   After a few times it does this before it goes to the next riff
G|---------------------------------------------------------------------------|
D|0-9-0-9-0-9-0-9-0-9--------------------------------------------------------|
A|---------------------------------------------------------------------------|
E|---------------------------------------------------------------------------|

G|-----------------------|---------------------------------------------------|
D|-----------------------|--------------------------4-----------------------.|
A|0-7-0-7-0-8-0-7-0-7-0-5|0-7-0-7-0-8-0-7-0-5-0-4-0---0-5-------------------.|
E|-----------------------|---------------------------------------------------|
   After that riff it does this
G|---------------------------------------------------------------------------|
D|---------------------------------------------------------------------------|
A|0-4-0-4-0-4-0-4------------------------------------------------------------|
E|---------------------------------------------------------------------------|

Well thats pretty much it! Les slaps and pops this but it could still work without it. 
if you slap remember to use your thumb to pluck up on the strings after slapping them.
Please rate!
| /  slide up
| \  slide down
| h  hammer-on
| p  pull-off
| ~  vibrato
| +  harmonic
| x  Mute note
===============================================================================
Добавлено: 09.07.2012
Другие материалы по этой песне:

Страница создана 28.02.2012
http://primanota.ru/les-claypool/amanitas-chords.htm
Привет, Гость.
Предлагаем пройти революционный курс по гитаре.
Подарок от PrimaNota.Ru, забирай!