PrimaNota.ru - самый крупный в мире бесплатный архив песенных текстов, аккордов, табулатур и нот


Les Claypool And The Holy Mackerel - Running The Gauntlet - таба, видео

Регистрация Запомнить меня
Войти через:  Facebook Google Twitter Vk Yandex Mail.ru

Les Claypool And The Holy Mackerel - Running The Gauntlet - таба, видео

Печатать
Просмотров: 68
Уроки эстрадного вокала в Санкт-Петербурге


Tabbed by BigBangBert
Les Claypool and the Holy Mackerel-Running the Gauntlet

|-x-x-------------|-----------------|
|-x-x-------------|-----------------|
|-x-x-----5-------|---3-------------|
|-x-x---4---4-----|-2---2-----0-0---|
|-x-x-5-------5-3-|-------3-------2-|
|-x-x-------------|---------3-------|

|-----------------|-----------------|---------------|
|-----------------|-----------------|---------------|
|-------------5---|-------3---------|---------------|
|---0-0-----4---4-|-----2---2-----0-|-0-----0-0-----|
|-------2-5-------|-5-3-------3-----|---2-------2---|
|-3---------------|-------------3---|-----3---------|


So...it sounds like a jamsession. Add variations and jam along.

Добавлено: 01.02.2014
Другие материалы по этой песне:

Страница создана 15.06.2012
http://primanota.ru/les-claypool-and-the-holy-mackerel/running-the-gauntlet-chords.htm
Привет, Гость.
Предлагаем пройти революционный курс по гитаре.
Подарок от PrimaNota.Ru, забирай!