PrimaNota.ru - самый крупный в мире бесплатный архив песенных текстов, аккордов, табулатур и нот


Les Claypool And The Holy Mackerel - Me And Chuck - бас-таба, видео

Регистрация Запомнить меня
Войти через:  Facebook Google Twitter Vk Yandex Mail.ru

Les Claypool And The Holy Mackerel - Me And Chuck - бас-таба, видео

Печатать
Просмотров: 122
Уроки эстрадного вокала в Санкт-Петербурге
By ear, it's a jam so I didn't tab every single fill.

Main riff, for a fill, hit D open instead of A
G|---------------------------------------|
D|---------------------------------------|
A|------------------0--------------------|
E|-5//-2h3-x-2h3-3---0h2h3-3-x-2h3-5-5//-|
B|---------------------------------------|

Fills

G|----------------|---------------|
D|-4h5-2-2/4------|---------------|
A|------------5---|---------------|
E|----------------|---------------|
B|----------------|-2-3-5-4-3-2---|

Solo (sorta all one thing)
G|-----------------------------------|
D|-7-7-7-5---7/9-7\5--5--------------|
A|--------7---------7--7-5h7p5-------|
E|-----------------------------7-----|
B|-----------------------------------|

Outro is the same riff but the first note is 7 on A, D, and G instead of 5 on E.
Добавлено: 09.08.2013
Другие материалы по этой песне:
  • Аккорды и текст

Страница создана 09.08.2013
http://primanota.ru/les-claypool-and-the-holy-mackerel/me-and-chuck-chords.htm
Привет, Гость.
Предлагаем пройти революционный курс по гитаре.
Подарок от PrimaNota.Ru, забирай!