PrimaNota.ru - самый крупный в мире бесплатный архив песенных текстов, аккордов, табулатур и нот


Les Claypool And The Holy Mackerel - Holy Mackerel - бас-таба, видео

Регистрация Запомнить меня
Войти через:  Facebook Google Twitter Vk Yandex Mail.ru

Les Claypool And The Holy Mackerel - Holy Mackerel - бас-таба, видео

Печатать
Просмотров: 59
              -------------------------------------------------------------------------------
                          Holy Mackerel - Les Claypool And The Holy Mackerel
              -------------------------------------------------------------------------------
Tabbed by: MisterMcDerp - Josh Ferry

Tuning: Standard 5 String BEADG (you could also drop C#/Db and figure it out from there for 4 string) 

When you listen to the song, he does some cool interlude stuff right after he does the each
section of the riff.
When he does that just improvise with some random slap notes. It will still sound good no matter what.

G|-------------|
D|-------------|
A|--0---2------| Intro
E|----------2--| (Played normally/without slap)
B|-------------|                             
                 P                        P                        P                        P
G|------------------------------------------------------------------------------------------------|
D|---------------x------------------------x------------------------x------------------------x-----| Repeat
A|------------------------------------------------------------------------------------------------| this
E|------------------------------------------------------------------------------------------------| a lot
B|--2--2--5\---2---2-2--5\---2--2--5\---2---2-2--5\---2--2--5\---2---2-2--5\---2--2--5\---2---2-2-|
    S  S  S    S   S S  S    S  S  S    S   S S  S    S  S  S    S   S S  S    S  S  S    S   S S

G|-------------|
D|-------------|
A|--0---2------| Play this once at 1:10 and 2:19
E|----------2--|
B|-------------|                             

The bass solo at 2:54 is also just a lot of improvisation so this is not perfect 
   P       P  P    P  P       P         P P       P         P    P P   P    P P
G|-7h9p7h9-7--9\---7--7h9p7h9-7h9p7h9\--7-7h9p7h9-7h9p7h9\--10h121212--10h121212p10--|
D|-----------------------------------------------------------------------------------|
A|-----------------------------------------------------------------------------------|
E|-----------------------------------------------------------------------------------|
B|-----------------------------------------------------------------------------------|
   P       P  P    P     P  P
G|-7h9p7h9-7--9\---7h9p7-7--9--------------------------------------------------------|
D|-----------------------------------------------------------------------------------| Goes back into
A|-----------------------------------------------------------------------------------|    main riff
E|-----------------------------999-9-------------------------------------------------|
B|-----------------------------------10\5\---2--2--5\---/15151515-15151515-1515\-----|
                               SSS S S  S    S  S  S      S S S S  S S S S  S S

This is a really fun song to play because of how much you can improvise. If you have any questions or
comments just comment.
===================================
| S  slap with side of thumb      |
| P  pop with index/middle finger |
| /  slide up                     |
| \  slide down                   |
| h  hammer-on                    |
| p  pull-off                     |
| x  Mute note                    |
===================================
Добавлено: 07.10.2015
Другие материалы по этой песне:
  • Аккорды и текст

Страница создана 07.10.2015
http://primanota.ru/les-claypool-and-the-holy-mackerel/holy-mackerel-chords.htm
Привет, Гость.
Предлагаем пройти революционный курс по гитаре.
Подарок от PrimaNota.Ru, забирай!