PrimaNota.ru - самый крупный в мире бесплатный архив песенных текстов, аккордов, табулатур и нот


Les Claypool And The Frog Brigade - Up On The Roof - бас-таба, видео

Регистрация Запомнить меня
Войти через:  Facebook Google Twitter Vk Yandex Mail.ru

Les Claypool And The Frog Brigade - Up On The Roof - бас-таба, видео

Печатать
Просмотров: 95
Intro:
   s s   * * * * s s   * * * * s s   * * * * s s   s p  s s s   * * * * s s   * * * *
G:---------------------------------------------------------------------------------------|
D:---------------------------------------------------------------------------------------|
A:---------------------------------------------------6-b6--------------------------------|
E:-0-0h8-7-7-7-7-0-0h8-7-7-7-7-0-0h8-7-7-7-7-0-0h8-x------0-0h8-7-7-7-7-0-0h8-7-7-7-7----|
   s s   s p   s s   s s   s p   s s   s s   * * * * s s   * * * * s s   * * * * s s    p
G:--------------------------------------------------------------------------------------|
D:--------------------------------------------------------------------------------------|
A:---------5h6---------------5h6--------------------------------------------------------|b6
E:-0-0h8-x-----x-5h6-0-0h8-x-----x-5h6-0-0h8-7-7-7-7-0-0h8-7-7-7-7-0-0h8-7-7-7-7-0-0h8--|
   s s   * * * * s s   * * * * s s   s p   s p   s s   s p   s p
G:-------------------------------------0h7---0h8---------0h7---0h8-----------------------|
D:---------------------------------------------------------------------------------------|
A:---------------------------------------------------------------------------------------|
E:-0-0h8-7-7-7-7-0-0h8-7-7-7-7-0-0h8-x-----x-----0-0h8-x-----x---------------------------|

Verse:
   s s   * * * * s s   * * * * s s   * * * * s s   * * * * s s   * * * * s s   * * * *
G:---------------------------------------------------------------------------------------|
D:---------------------------------------------------------------------------------------|
A:---------------------------------------------------------------------------------------|
E:-0-0h8-7-7-7-7-0-0h8-7-7-7-7-0-0h8-7-7-7-7-0-0h8-7-7-7-7-0-0h8-7-7-7-7-0-0h8-7-7-7-7---|


Chorus:

   s ^ ^ s s s s   s p   s p   s s   s p   s p   s ^ ^  s  ^  ^ s s   s p   s p
G:---8-8-------------0h7---0h8---------0h7---0h8---8-8----11-11---------0h7---0h8--------|
D:---8-8-------------------------------------------8-8----11-11--------------------------|
A:-6-6-6-----------------------------------------6-6-6-/9--9--9--------------------------|
E:-------6-6-6-0h8-x-----x-----0-0h8-x-----x--------------------0-0h8-x-----x------------|
   s s   s p   s p   s ^ ^ s s s s   s p   s p   s s   s p   s p   s ^ ^ s ^ ^
G:---------0h7---0h8---8-8-------------0h7---0h8---------0h7---0h8---8-8---7-7-----------|
D:---------------------8-8-------------------------------------------8-8---7-7-----------|
A:-------------------6-6-6-----------------------------------------6-6-6-5-5-5-----------|
E:-0-0h8-x-----x-----------6-6-6-0h8-x-----x-----0-0h8-x-----x---------------------------|
   s s   s p   s p   s s   s p   s p   s ^ ^ s ^ ^ s   s p   s p   s s   s p   s p
G:---------0h7---0h8---------0h7---0h8---8-8---7-7-------0h7---0h8---------0h7---0h8-----|
D:---------------------------------------8-8---7-7---------------------------------------|
A:-------------------------------------6-6-6-5-5-5---------------------------------------|
E:-0-0h8-x-----x-----0-0h8-x-----x-----------------0h8-x-----x-----0-0h8-x-----x---------|
   s ^ ^  s  ^  ^ s s   s p   s p   s s   s p   s p   s s   s p   s p   s s   s s   s s
G:---8-8----11-11---------0h7---0h8---------0h7---0h8---------0h7---0h8--------------------|
D:---8-8----11-11--------------------------------------------------------------------------|
A:-6-6-6-/9--9--9--------------------------------------------------------------------------|
E:----------------0-0h8-x-----x-----0-0h8-x-----x-----0-0h8-x-----x-----0-0h8-x-0h6-x-0h6--|
   s s   s p   s p   s s   s p   s p   s s   s p   s p   s   s p  s
G:---------0h7---0h8---------0h7---0h8---------0h7---0h8-------0-------------------------|
D:---------------------------------------------------------------------------------------|
A:---------------------------------------------------------------------------------------|
E:-0-0h8-x-----x-----0-0h8-x-----x-----0-0h8-x-----x-----0-/15---15\---------------------|

Bridge:
   s s   s p   s p   s s   s s   s s   s s   s p   s p   s s   s p   s s
G:---------------------------------------------------------------0h5---------------------|
D:---------0h5---0h7---------------------------0h5---0h7-------------x-0h5---------------|
A:---------------------------------------------------------------------------------------|
E:-0-0h5-x-----x-----0-0h5-0-0h3-0-0h3-0-0h5-x-----x-----0-0h5-x-------------------------|
   s s   s p   s p   s s   s p   s s   s s   s p   s p   s s ^ ^ ^
G:-----------------------------------------------------------5-5-5-----------------------|
D:---------0h5---0h7---------0h5---------------0h5---0h7-----5-5-5-----------------------|
A:---------------------------------------------------------------------------------------|
E:-0-0h5-x-----x-----0-0h5-x-----x-0h3-0-0h5-x-----x-----0-5-----------------------------|
   s s   s p   s p   s s   s s   s s   s s   s p   s p   s s ^ ^ ^
G:-----------------------------------------------------------5-5-5-----------------------|
D:---------0h5---0h7---------------------------0h5---0h7-----5-5-5-----------------------|
A:---------------------------------------------------------------------------------------|
E:-0-0h5-x-----x-----0-0h5-0-0h3-0-0h3-0-0h5-x-----x-----0-5-----------------------------|
   s s   s p   s p   s s   s s   s s   s s   s p   s p   s s   ^  ^  ^  ^  ^  ^  ^  ^
G:------------------------------------------------------------22-21-20-19-18-17-16-15\---|
D:---------0h5---0h7---------------------------0h5---0h7------22-21-20-19-18-17-16-15\---|
A:---------------------------------------------------------------------------------------|
E:-0-0h5-x-----x-----0-0h5-0-0h3-0-0h3-0-0h5-x-----x-----0-5/----------------------------|
   s s   s p   s p   s s   s p   s s   s s   s p   s p   s   s  s  s  s  s s s
G:---------0h7---0h8---------0h7---------------0h7---0h8---------------------------------|
D:---------------------------------------------------------------------------------------|
A:---------------------------------------------------------------------------------------|
E:-0-0h8-x-----x-----0-0h8-x-----x-0h6-0-0h8-x-----x-----0-/10-10-10-10-10-6-4h6---------|
   s s   s p   s p   s s   s s   p h s s   s p   s p   s p    s p    s p
G:---------0h7---0h8-------------0-----------0h7---0h8---0h10---0h10---0h10--------------|
D:---------------------------------------------------------------------------------------|
A:---------------------------------------------------------------------------------------|
E:-0-0h8-x-----x-----0-0h8-x-0h6---6-0-0h8-x-----x-----x------x------x-------------------|
   s s   s p   s p   s s   s p   s s   s s   s p   s p   s  s  s  s s s s  s  s
G:---------0h7---0h8---------0h7---------------0h7---0h8---------------------------------|
D:---------------------------------------------------------------------------------------|
A:---------------------------------------------------------------------------------------|
E:-0-0h8-x-----x-----0-0h8-x-----x-0h6-0-0h8-x-----x-----x-10-10-10-6-6-6-10-10----------|
   s s   s p   s p   s s   s p   s p   s s   s p   s s   s s   s s   s p
G:---------0h7---0h8---------0h7---0h8---------0h7---------------------0-----------------|
D:---------------------------------------------------------------------------------------|
A:---------------------------------------------------------------------------------------|
E:-0-0h8-x-----x-----0-0h8-x-----x-----0-0h8-x-----0-0h6-0-0h6-0-0h6-0-------------------|
   s s   s p   s p    s s   s p   s p    s s   s p   s p    s s   s p   s p
G:---------0h8---0h10---------0h8---0h12---------0h8---0h10---------0h7---0h8------------|
D:---------------------------------------------------------------------------------------|
A:---------------------------------------------------------------------------------------|
E:-0-0h8-x-----x------0-0h8-x-----x------0-0h8-x-----x------0-0h8-x-----x----------------|

   s s   s p   s p    s s   s p   s p    s s   s p   s p   s p   s p   s p
G:---------0h8---0h10---------0h8---0h10---------0h7---0h8---0h7---0h8---0h10------------|
D:---------------------------------------------------------------------------------------|
A:---------------------------------------------------------------------------------------|
E:-0-0h8-x-----x------0-0h8-x-----x------0-0h8-x-----x-----x-----x-----x-----------------|
   s s   s p   s p    s s   s p   s p    s s   s p   s p    s s   s p   s p
G:---------0h8---0h10---------0h8---0h10---------0h8---0h10---------0h8---0h7------------|
D:---------------------------------------------------------------------------------------|
A:---------------------------------------------------------------------------------------|
E:-0-0h8-x-----x------0-0h8-x-----x------0-0h8-x-----x------0-0h8-x-----x----------------|
  s s   s p   s p    s s   s p   s p    s ^  ^  ^  ^  ^  ^  ^  ^  ^  ^  ^  ^  ^  ^  ^  ^
G:--------0h8---0h10---------0h8---0h10--17-17-16-16-16-15-15-15-14-14-14-13-13-13-12-12\--|
D:---------------------------------------17-17-16-16-16-15-15-15-14-14-14-13-13-13-12-12\--|
A:-----------------------------------------------------------------------------------------|
E:0-0h8-x-----x------0-0h8-x-----x------x--------------------------------------------------|
   s s s s s s s s s s s s s s s s s s s s s s s s s s s s s s s s s s s s s s  s  s  s
G:---------------------------------------------------------------------------------------|
D:---------------------------------------------------------------------------------------|
A:---------------------------------------------------------------------------------------|
E:-x-8-x-x-x-x-x-8-x-x-x-x-x-8-x-x-x-x-x-8-x-x-x-x-x-8-x-x-x-x-x-8-x-x-x-x-x-8-b8-b8-b8--|
    s  s  s  s  s  s  s s s   s s s s s s s s s s s s s s s s s s s s s s s s s s
G:---------------------------------------------------------------------------------------|
D:---------------------------------------------------------------------------------------|
A:---------------------------------------------------------------------------------------|
E:-b8-b8-b8-b8-b8-b8-b8-x-0h8-x-x-x-x-x-8-x-x-x-x-x-8-x-x-x-x-x-x-x-x-x-x-x-x-x-x--------|
   s   s s s s s s   s  s    s p  p   p  s  s
G:-----------------------------0-15\-17\-------------------------------------------------|
D:---------------------------------------------------------------------------------------|
A:---------------------------------------------------------------------------------------|
E:-0h8-x-x-x-x-x-8-/15-15\-/15-----------8\-3\-------------------------------------------|

Outro:
   s s s s s s s s s s s s s s s s s s s s s s s s s s s s s s s s s s s s s s
G:---------------------------------------------------------------------------------------|
D:---------------------------------------------------------------------------------------|
A:---------------------------------------------------------------------------------------|
E:-x-8-x-x-x-x-x-8-x-x-x-x-x-8-x-x-x-x-x-8-x-x-x-x-x-8-x-x-x-x-x-8-x-x-x-x-x-8-----------|
   s s s s s s s s s s s s s s s s s s s s s s s s s s ^ ^ s s s s     s ^ ^  s  ^  ^ s
G:-----------------------------------------------------8-8---------------8-8----11-11----|
D:-----------------------------------------------------8-8---------------8-8----11-11----|
A:---------------------------------------------------6-6-6-------------6-6-6-/9--9--9----|
E:-x-8-x-x-x-x-x-8-x-x-x-x-x-8-x-x-x-x-x-8-x-x-x-x-x-------6-6-6-8--------------------8--|
   s ^ ^ s s s s     s ^ ^ s ^ ^ s   s p   s p   s s   s p   s p   s ^ ^ s ^ ^
G:---8-8---------------8-8---7-7-------0h7---0h8---------0h7---0h8---8-8---7-7-----------|
D:---8-8---------------8-8---7-7-------------------------------------8-8---7-7-----------|
A:-6-6-6-------------6-6-6-5-5-5-----------------------------------6-6-6-5-5-5-----------|
E:-------6-6-6-8-----------------0h8-x-----x-----0-0h8-x-----x---------------------------|
   s   s p   s p   s s   s p   s p   s ^ ^  s  ^  ^ s ^ ^  s  ^  ^ s ^ ^  s  ^  ^ s
G:-------0h7---0h8---------0h7---0h8---8-8----11-11---8-8----11-11---8-8----11-11--------|
D:-------------------------------------8-8----11-11---8-8----11-11---8-8----11-11--------|
A:-----------------------------------6-6-6-/9--9--9-6-6-6-/9--9--9-6-6-6-/9--9--9--------|
E:-0h8-x-----x-----0-0h8-x-----x--------------------------------------------------8------|
Добавлено: 21.07.2012
Другие материалы по этой песне:
  • Аккорды и текст

Страница создана 21.07.2012
http://primanota.ru/les-claypool-and-the-frog-brigade/up-on-the-roof-chords.htm
Привет, Гость.
Предлагаем пройти революционный курс по гитаре.
Подарок от PrimaNota.Ru, забирай!