PrimaNota.ru - самый крупный в мире бесплатный архив песенных текстов, аккордов, табулатур и нот


Les Claypool And The Frog Brigade - David Makalaster - бас-таба, видео

Регистрация Запомнить меня
Войти через:  Facebook Google Twitter Vk Yandex Mail.ru

Les Claypool And The Frog Brigade - David Makalaster - бас-таба, видео

Печатать
Просмотров: 90
			     David Makalaster - Les Claypool And The Frog Brigade
-------------------------------------------------------------------------------

Tabbed By : Lawrence Hill
e-mail: ozloz@hotmail.co.uk

Tuning: EADG


This is a rough version of the song. If you listen to the song it wont be hard to put 
tab to the music. The 0-5-7 part in the intro is played as a triplet. All chords are 
with the fingertips on the right hand. The chorus is quite hard to get your 
head around, in my opinion, but i tried my best and it sounds right when i 
play along to the song with it. 
fun playing.


Part 1 (Intro):

G|--------------------------------------------------------5-4-3-0-2--|
D|----------------------------------5------------------5--5-4-3-0-2--|
A|--0-5-7----0-5-7----0-5-7--0-5-7-------0-5-7--0-5-7----------------|
E|--------0--------0------------------0------------------------------|

Part 2 (Verse):

G|--6--6--10--9--|--9--9--9--9--8--| Let last chord ring...
D|--6--6--10--9--|--9--9--9--9--8--|
A|---------------|-----------------|
E|---------------|-----------------|

Part 3 (Chorus):

G|--------------------------------------------------------------------|
D|--5h7-7-7-7--5h7-7-7-7--5h7-5-7-5-7-5-------------------5--7-7-7-7--|
A|--------------------------------------5-3-2-3-2-3-2-3-5-------------|
E|--------------------------------------------------------------------|

G|------------------------------------------------7-9-7---------------|
D|--7-10-7--7-10-7-5-------------------5--7-7-7-7-------9-7-5---------|
A|-------------------5-3-2-3-2-3-2-3-5--------------------------------|
E|--------------------------------------------------------------------|

G|----------------------------------------------------2-2-2-2-2-2-2---|
D|--3-3-2-2---------3-3-2-2---------3-3-2-2-2-2-2-2-2-----------------|
A|----------3-3-3-3---------3-3-3-3-----------------------------------|
E|--------------------------------------------------------------------|


Enjoy.


| /  slide up
| \  slide down
| h  hammer-on
| p  pull-off
| ~  vibrato
| +  harmonic
| x  Mute note
===============================================================================
Добавлено: 12.05.2012
Другие материалы по этой песне:

Страница создана 13.03.2012
http://primanota.ru/les-claypool-and-the-frog-brigade/david-makalaster-chords.htm
Привет, Гость.
Предлагаем пройти революционный курс по гитаре.
Подарок от PrimaNota.Ru, забирай!