PrimaNota.ru - самый крупный в мире бесплатный архив песенных текстов, аккордов, табулатур и нот


Les Claypool And The Frog Brigade - Buzzards Of Green Hill - бас-таба, видео

Регистрация Запомнить меня
Войти через:  Facebook Google Twitter Vk Yandex Mail.ru

Les Claypool And The Frog Brigade - Buzzards Of Green Hill - бас-таба, видео

Печатать
Просмотров: 99
-------------------------------------------------------------------------------
	 THE BUZZARDS OF GREEN HILL - Les Claypool And The Frog Brigade 
-------------------------------------------------------------------------------

Tabbed By : Lawrence Hill
e-mail: Ozloz@hotmail.co.uk

Just listen to the song and it should be easy enough to figure out which part comes when.
This is only a rough tab, just fill in the gaps with your own improv and stuff.

Use a Synth-Wah or Auto-Wah effect, whatever works best. All Slapped...


Tuning: EADG



Part 1:

G|-------------------------------|-------------------------------------------|
D|-------------------------------|-----------------------12------------------|
A|--------11---11---11---11--10--|--------11---11---11-------11--------------|
E|--8/-10----x----x----x---------|--8/-10----x----x----x---------------------|

Part 2:

G|------------------------------------------|------------------------------------------|
D|--12--10------------------------------10--|--12--10----------------------------------|
A|----------12--8------------8--10--12------|----------12--8---------------------------|
E|-----------------10----10-----------------|-----------------10----10--10--8--10--10--|

Part 3:

G|-------------------------|-------------------------------------------------|
D|---------------------10--|---------------------12--------------------------|
A|--------8h10--10h12------|--------8h10--10h12------------------------------|
E|--8h10-------------------|--8h10-------------------------------------------|

G|---------------------------------------------------------------------------|
D|--10h12--10----------------------------------------------------------------|
A|-------------12--10--8-----------------------------------------------------|
E|------------------------10p8--10--8--10------------------------------------|


Enjoy



| /  slide up
| \  slide down
| h  hammer-on
| p  pull-off
| ~  vibrato
| +  harmonic
| x  Mute note
===============================================================================
Добавлено: 14.05.2012
Вам также может быть интересно:
Другие материалы по этой песне:
  • Аккорды и текст

Страница создана 14.05.2012
http://primanota.ru/les-claypool-and-the-frog-brigade/buzzards-of-green-hill-chords.htm
Привет, Гость.
Предлагаем пройти революционный курс по гитаре.
Подарок от PrimaNota.Ru, забирай!