PrimaNota.ru - самый крупный в мире бесплатный архив песенных текстов, аккордов, табулатур и нот


Leroy Mclard - Jesus Is Lord Of All - таба, видео

Регистрация Запомнить меня
Войти через:  Facebook Google Twitter Vk Yandex Mail.ru

Leroy Mclard - Jesus Is Lord Of All - таба, видео

Печатать
Просмотров: 73
-------------------------------------------------------------------------------
                             Jesus is Lord of all - Leroy Mclard
-------------------------------------------------------------------------------
Tabbed by:everyhymn
E-mail:
key of C
Tuning:E-A-D-G-B-e

e|---------------------------------------------------------------------------|
B|---------------------------1-----------------------------------------------|
G|-----------------------0------2---0----------------------------------------|
D|--2--2--2--0--2---3---------------0---2---2---2--2--0-----0---2--2--2------|
A|--3--3--3--3--3---3----3---3--2-------3---3------3--3-3---0---3--3--3------|
E|---------------------------------------------------------------------------|
   Jesus is savior and Lord of my life my hope my glory my all wonderful 
e|---------------------------------------------------------------------------|
B|------------------------1-----1--------------------------------------------|
G|--0--2---0----------2------------0-----------------------------------------|
D|--2--2------3---3---3---1-----2------3--2---0------------------------------|
A|---------3--3---3----------------3---3--3---2---3--------------------------|
E|------------------------------------------------3--------------------------|
   master in Joy and in strife on Him you to may call
e|---------------------------------------------------------------------------|
B|---------------------------------------------------------------------------|
G|-----------------0---0--0---2-----2---0---------------------0--------2--0--|
D|-------2-1---2----------0------3----------2--0----2---1-2---2--------2-----|
A|-------3-----3---2---2------3--3--3---3---3-------3-----3---------------3--|
E|---------------------------------------------------------------------------|
chorus: Jesus is Lord of all Jesus is Lord of all Lord of my thoughts and my
e|---------------------------------------------------------------------------|
B|---------------1---1-------------------------------------------------------|
G|-----------2---------0-----------------------------------------------------|
D|--3---3----3---1---2-----3---2---0-----------------------------------------|
A|--3---3--------------3---3---3---2--3--------------------------------------|
E|------------------------------------3--------------------------------------|
   service each day Jesus is Lord of all



************************************

| /   slide up
| \   slide down
| h   hammer-on
| p   pull-off
| ~   vibrato
| +   harmonic
| x   Mute note
| b   Bend
| pb  Pre-bend
| br  Bend release
| pbr Pre-bend release
| brb Bend release bend

************************************
Добавлено: 22.12.2015
Другие материалы по этой песне:
  • Аккорды и текст

Страница создана 22.12.2015
http://primanota.ru/leroy-mclard/jesus-is-lord-of-all-chords.htm
Привет, Гость.
Предлагаем пройти революционный курс по гитаре.
Подарок от PrimaNota.Ru, забирай!