PrimaNota.ru - самый крупный в мире бесплатный архив песенных текстов, аккордов, табулатур и нот


Leonard Bernstein - Somewhere - таба, видео

Регистрация Запомнить меня
Войти через:  Facebook Google Twitter Vk Yandex Mail.ru

Leonard Bernstein - Somewhere - таба, видео

Печатать
Просмотров: 222
"Somewhere"
from West Side Story
by Leonard Bernstein and Stephen Sondheim
tab and arrangement by AtionSong

  G    G7   C    F    Dm   G    C    F
E-----------------------------------------|
B-----------------------3-----------------|
G-------------0--------2-2--------0-------|
D---0----3---2-2---3--0------0---2-2---3--|
A--2-2--2-2-3-----3-3-------2-2-3-----3-3-|
E-3----3---------1---------3---------1----|

There's a place for us, somewhere a place for us

  G    G7   Em   Am   F    Bb   Gsus G
E-----------------------------------------|
B-----------------------------------------|
G------------------2---------3------------|
D---0----3----2---2-2---3---3-3---0-------|
A--2-2--2-2--2-2-0-----3-3-1-----3-3-2----|
E-3----3----0---------1---------3---------|


Peace and quiet and open air wait for us somewhere

  G    G7   C    F    Dm   G    C    F
E-----------------------------------------|
B-----------------------3-----------------|
G-------------0--------2-2--------0-------|
D---0----3---2-2---3--0------0---2-2---3--|
A--2-2--2-2-3-----3-3-------2-2-3-----3-3-|
E-3----3---------1---------3---------1----|

There's a time for us, someday a time for us

  G    G7   Em   Am   F    Bb   Gm   Eb
E-----------------------------------------|
B-----------------------------------------|
G------------------2---------3---------0--|
D---0----3----2---2-2---3---3-3---0---1-1-|
A--2-2--2-2--2-2-0-----3-3-1-----1-1-1----|
E-3----3----0---------1---------3---------|


Time together with time to spare
Time to learn, Time to care

  Ab     Fm     Cm     Dm     Ab  Fm
E-------------------------1-1-------------|
B------------------------3-3--------------|
G-----------------0-----2-----------------|
D---6------3-----1-1-1-0--------6---3-----|
A--6-6-6--3-3-3-3---3----------6-6-3-3----|
E-4---4--1---1----------------4---1-------|

Someday, somewhere, we'll find a new way of living
We'll find a way of for-

  Eb     D      Bm
E-----------------------------------------|
B----------3------------------------------|
G---0-----2-2-2---4-----------------------|
D--1-1-1-0---0---4-4-4--------------------|
A-1---1---------2---2---------------------|
E-----------------------------------------|

-giving, somewhere

  G    G7   C    F    Dm   G    C    F
E-----------------------------------------|
B-----------------------3-----------------|
G-------------0--------2-2--------0-------|
D---0----3---2-2---3--0------0---2-2---3--|
A--2-2--2-2-3-----3-3-------2-2-3-----3-3-|
E-3----3---------1---------3---------1----|

There's a place for us, a time and place for us

  G    G7   Em   Am   F    Bb   Gm   Eb
E-----------------------------------------|
B-----------------------------------------|
G------------------2---------3---------0--|
D---0----3----2---2-2---3---3-3---0---1-1-|
A--2-2--2-2--2-2-0-----3-3-1-----1-1-1----|
E-3----3----0---------1---------3---------|


Hold my hand and we're halfway there
Hold my hand and I'll take you there

  Ab  Fm  G  G7  C  C
E-----------------------------------------|
B-------------------1---------------------|
G----------------0--0---------------------|
D-6---3---0--3---2------------------------|
A-6---3---2--2---3------------------------|
E-4---1---3--3----------------------------|

Somehow, someday, somewhere
Добавлено: 18.07.2012
Другие материалы по этой песне:

Страница создана 25.05.2012
http://primanota.ru/leonard-bernstein/somewhere-chords.htm
Привет, Гость.
Предлагаем пройти революционный курс по гитаре.
Подарок от PrimaNota.Ru, забирай!