PrimaNota.ru - самый крупный в мире бесплатный архив песенных текстов, аккордов, табулатур и нот


Leo Zanco - Bbs Blues - аккорды и текст, видео

Регистрация Запомнить меня
Войти через:  Facebook Google Twitter Vk Yandex Mail.ru

Leo Zanco - Bbs Blues - аккорды и текст, видео

Печатать
Просмотров: 37
Уроки эстрадного вокала в Санкт-Петербурге
Bbs Blues
Leo Zanco
No Capo

[Intro]
e|---------------------------------|
B|---------------------------------|
G|-----5--7--8--7--5---------------|
D|--7--5--7--8--7--5--7------------|
A|--7-----------------7------------|
E|---------------------------------|

[Verse]
C
  Last night 
E
  whimsically
Am                   D
  The moon shone on you 
C           E
  Music so kindly
      Am                F#dim
  Introduced us into a dance

[Chorus]
   C        E       F       F#dim
  soulful, simple, beautiful
   C            G  G7    C
  you're like a b.b.'s blues

e|---------------------------------|
B|---------------------------------|
G|-----5--7--8--7--5---------------|
D|--7--5--7--8--7--5--7------------|
A|--7-----------------7------------|
E|---------------------------------|

[Verse]
C
  Talking 
E
  about dreams
Am                        D
  And how life should to be
       C           E
  The morning surprised us
Am                    F#dim
  we were falling in love

[Chorus]
   C        E       F       F#dim
  soulful, simple, beautiful
   C            G  G7    C
  you're like a b.b.'s blues

e|---------------------------------|
B|---------------------------------|
G|-----5--7--8--7--5---------------|
D|--7--5--7--8--7--5--7------------|
A|--7-----------------7------------|
E|---------------------------------|

[Interlude]
C E Am D  
C E Am F#dim
C E Am D
C E Am F#dim

[Chorus]
   C        E       F       F#dim
  soulful, simple, beautiful
   C            G  G7    C
  you're like a b.b.'s blues

[Solo]
C
  We kissed
E
  Then said goodbye
Am                   D
  Promised to meet again
       C                E
  The Fortune Ain't so gentle
        Am              F#dim
  So I took you by the hand

[Outro]
   C        E       F       F#dim
  soulful, simple, beautiful
   C        E       F       F#dim
  soulful, simple, beautiful
   C        E       F       F#dim
  soulful, simple, beautiful
   C            G  G7    C
  you're like a b.b.'s blues

e|---------------------------------|
B|---------------------------------|
G|-----5--7--8--7--5---------------|
D|--7--5--7--8--7--5--7------------|
A|--7-----------------7------------|
E|---------------------------------|
Добавлено: 17.08.2017
Другие материалы по этой песне:
  • Аккорды и текст

Страница создана 17.08.2017
http://primanota.ru/leo-zanco/bbs-blues-chords.htm
Привет, Гость.
Предлагаем пройти революционный курс по гитаре.
Подарок от PrimaNota.Ru, забирай!