PrimaNota.ru - самый крупный в мире бесплатный архив песенных текстов, аккордов, табулатур и нот


Leo Kottke - Wonderland By Night - таба, видео

Регистрация Запомнить меня
Войти через:  Facebook Google Twitter Vk Yandex Mail.ru

Leo Kottke - Wonderland By Night - таба, видео

Печатать
Просмотров: 82
Here's another old one for which the author remains anonymus. I'll credit it 
to Bruce Head because I got this from his website, www.guitarmusic.org, and 
because he has made many great and lasting contributions to the world of 
Kottke and the guitar. Sort of like an honorary degree.

Patrick Schwemmer
pschwemm@hotmail.com

TITLE: Wonderland By Night
ALBUM: Peculiaroso
By Leo Kottke
Honorary Transcriber: Bruce Head

Tuning DADGBE (Dropped D)
6 String

Notes: Timing 4/4

TAB NOTATION
p  = RH thumb
i  = RH index
m  = RH middle
a  = RH ring


    Intro.  Play freely (straight 8ths)
                              rit.     a tempo rit.
    |-3---2---0----------------------|--------------------------------|
    |-------------3---2---0----------|-0------------------------------|
    |-4---2---0---------------2---0--|-0---2---0----------------------|
    |-------------4---2---0----------|-0-----------2------------------|
    |-------------------------4---2--|-------------0------------------|
    |--------------------------------|-5---4---2----------------------|
      1   &   2   &   3   &   4   &    1   &   2   &   3   &   4   &


    Swing Rhythm
      D                       Dadd9    A/C#        Add9/C#
    |-----------------2-------5------|-5-----------0------------------|
    |-3---------------3-------5------|-5-----------0------------------|
1   |-2------------------------------|---------2---2-----------2------|
    |-4-------4---------------4---0--|-----2---------------2-------2--|
    |-----0-------0-------0----------|-4---------------4--------------|
    |-0---------------0--------------|--------------------------------|
      1   &   2   &   3   &   4   &    1   &   2   &   3   &   4   &



      Em              A                D               Bm7
    |-----3---5---3---2--------------|-2------------------------------|
    |-----0-------0---2---5-----3-5--|-3-------3-------3--------------|
3   |-----0---0-------2-------2------|-2-------2-------2--------------|
    |-----2--------------------------|---------4-------4--------------|
    |-----------------0--------------|-----0-------0---2---0-------0--|
    |-2------------------------------|-0-----------------------2/4----|
      1   &   2   &   3   &   4   &    1   &   2   &   3   &   4   &
                                                              triplet


      D                       Dadd9    A/C#            Aadd9/C#
    |-----------------2-------5------|-5---------------0--------------|
    |-3---------------3-------5------|-5---------------0--------------|
5   |-2------------------------------|---------2-------2-------2------|
    |-4-------4---------------4---0--|-----2-------2-------2----------|
    |-----0-------0-------0----------|-4---------------4--------------|
    |-0---------------0--------------|--------------------------------|
      1   &   2   &   3   &   4   &    1   &   2   &   3   &   4   &



      Em              A                D                       A
    |-----3---5---3---2--------------|---------2----------------------|
    |-----0-------0---2---5-----3/5\-|-3-------3-------7-\-----2------|
7   |-----0---0-------2-------2------|---------2-------7-\-----2------|
    |-----2---------------2----------|-----------/-7-----\-----2---0--|
    |-----------------0--------------|-----0---------------0----------|
    |-2------------------------------|-0------------------------------|
      1   &   2   &   3   &   4   &    1   &   2   &   3   &   4   &
                             triplet


      G
    |--------------------------------|--------------------------------|
    |-----------------0-------0------|-3---------------------------0--|
9   |-0-------0-------0-------0------|-4---------------------------0--|
    |-0-------0-------------------0--|---------0---------------0------|
    |-----5-------5-------5----------|-----5-------5-------5----------|
    |-5---------------5--------------|-5---------------5--------------|
      1   &   2   &   3   &   4   &    1   &   2   &   3   &   4   &



                                       D
    |--------------------------------|-----------------2--------------|
    |h3-\-0-/-3-\-0-/-3-\-0-/-3-\-0--|-0---------------3---3-------0--|
11  |h4-\-0-/-4-\-0-/-4-\-0-/-4-\-0--|-0---2-----------2-----------0--|
    |--------------------------------|-----4-------4------------------|
    |--------------------------------|---------0---------------0------|
    |------------------------(5-4-2)-|-0---------------0--------------|
      1   &   2   &   3   &   4   &    1   &   2   &   3   &   4   &
                             triplet


      G                                D
    |--------------------------------|-----------------2--------------|
    |/3-\-0-/-3-\-0-/-3-\-0-/-3-\-0--|-0---------------3---3----------|
13  |/4-\-0-/-4-\-0-/-4-\-0-/-4-\-0--|-0---2-----------2---2----------|
    |--------------------------------|-----4-------4-------4----------|
    |--------------------------------|---------0---------------0------|
    |-5-----------0-/-5--------------|-0---------------0--------------|
      1   &   2   &   3   &   4   &    1   &   2   &   3   &   4   &



      E               E6               A/C#
    |--------------------------------|-------------------/5-\3-\2-\0--|
    |-0---------------2-------3-/----|-5-----------5-----/5-\3-\2-\0--|
15  |-1---------------1-------0------|-2-------2----------------------|
    |-2-------2-------2-------0------|-2---2--------------------------|
    |-----2-------2------------------|-4---------------4--------------|
    |-2---------------2--------------|--------------------------------|
      1   &   2   &   3   &   4   &    1   &   2   &   3   &   4   &
                                            triplet         triplet


      D                       Dadd9    A/C#            Aadd9/C#
    |-----------------2-------5------|-5---------------0--------------|
    |-3---------------3-------5------|-5---------------0-----------0--|
17  |-2------------------------------|---------2-------2-------6------|
    |-4-------4---------------4---0--|-----2-------2-----------7------|
    |-----0-------0-------0----------|-4---------------4-/-7----------|
    |-0---------------0--------------|--------------------------------|
      1   &   2   &   3   &   4   &    1   &   2   &   3   &   4   &



      Em              A                D               Bm7
    |-----3---5---3---2--------------|-2------------------------------|
    |-----0-------0---2---5-----3-5--|-3-------3-------3--------------|
19  |-----0---0-------2-------2------|-2-------2-------2--------------|
    |-----2---------------2----------|---------4-------4--------------|
    |-----------------0--------------|-----0-------0---2---0-------0--|
    |-2------------------------------|-0-----------------------2/4----|
      1   &   2   &   3   &   4   &    1   &   2   &   3   &   4   &
                             triplet                          triplet


      D                       Dadd9    A/C#            Aadd9/C#
    |-----------------2-------5------|-5---------------0--------------|
    |-3---------------3-------5------|-5---------------0--------------|
21  |-2------------------------------|---------2-------2-------2------|
    |-4-------4---------------4---0--|-----2-------2-------2----------|
    |-----0-------0-------0----------|-4---------------4--------------|
    |-0---------------0--------------|--------------------------------|
      1   &   2   &   3   &   4   &    1   &   2   &   3   &   4   &



      Em              A                D                       A
    |-----3---5---3---2--------------|---------2----------------------|
    |-----0-------0---2---5-----3/5\-|-3-------3-------7-\-----2------|
23  |-----0---0-------2-------2------|---------2-------7-\-----2------|
    |-----2---------------2----------|-----------/-7-----------2---0--|
    |-----------------0--------------|-----0---------------0----------|
    |-2------------------------------|-0------------------------------|
      1   &   2   &   3   &   4   &    1   &   2   &   3   &   4   &
                             triplet


      G                                G
    |--------------------------------|--------------------------------|
    |-----------------0-------0------|-3---------------------------0--|
25  |-0-------0-------0-------0------|-4-------4-------------------0--|
    |-0-------0-------------------0--|-----0-------0-----------0------|
    |-----5-------5-------5----------|---------------------5----------|
    |-5---------------5--------------|-5---------------5--------------|
      1   &   2   &   3   &   4   &    1   &   2   &   3   &   4   &



                                       D
    |--------------------------------|-----------------2--------------|
    |h3--p0---3--p0---3--p0---3--p0--|-0---------------3---3-------0--|
27  |h4--p0---4--p0---4--p0---4--p0--|-0---2-----------2-----------0--|
    |---------0---------------0------|-----4-------4------------------|
    |--------------------------------|---------0---------------0------|
    |-5---------------5--------------|-0---------------0--------------|
      1   &   2   &   3   &   4   &    1   &   2   &   3   &   4   &



      G                                D
    |--------------------------------|-----------------2--------------|
    |-3--p0---3--p0---3--p0---3--p0--|-0---------------3---3----------|
29  |-4--p0---4--p0---4--p0---4--p0--|-0---2-----------2--------------|
    |---------0---------------0------|-----4-------4-------------\-2--|
    |--------------------------------|---------0---------------0------|
    |-5---------------5--------------|-0---------------0--------------|
      1   &   2   &   3   &   4   &    1   &   2   &   3   &   4   &



      E               E6               A/C#
    |--------------------------------|-------------------/5-\3-\2-p0--|
    |-0---------------2-------3---/--|-5-----------5-----/5-\3-\2-p0--|
31  |-1---------------1-------0------|-2-------2---2------------------|
    |-2-------2-------2-------0------|-2---2--------------------------|
    |-----2-------2------------------|-4---------------4--------------|
    |-2---------------2--------------|--------------------------------|
      1   &   2   &   3   &   4   &    1   &   2   &   3   &   4   &
                                            triplet


      D                       Dadd9    A/C#            Aadd9/C#
    |-----------------2-------5------|-5---------------0--------------|
    |-3---------------3-------5------|-5---------------0--------------|
33  |-2------------------------------|---------2-------2-------2------|
    |-4-------4---------------4---0--|-----2-------2-------2-------2--|
    |-----0-------0-------0----------|-4---------------4--------------|
    |-0---------------0--------------|--------------------------------|
      1   &   2   &   3   &   4   &    1   &   2   &   3   &   4   &



      Em              A                D              Bm7
    |-----3---5---3---2--------------|-2------------------------------|
    |-----0-------0---2---5-----3-5--|-3-------3-------3--------------|
35  |-----0---0-------2-------2------|-2-------2-------2--------------|
    |-----2---------------2----------|---------4-------4--------------|
    |-----------------0--------------|-----0-------0---2---0-------0--|
    |-2------------------------------|-0-----------------------2/4----|
      1   &   2   &   3   &   4   &    1   &   2   &   3   &   4   &
                             triplet                          triplet


      D                                 G          G/B
    |-----------------2-------5---/--|-10-----------------------------|
    |-3---------------3-------5---/--|-10--------------3--------------|
37  |-2------------------------------|---------0----------------------|
    |-4-------4---------------4------|-----0--------------------------|
    |-----0-------0-------0----------|-------------2------------------|
    |-0---------------0--------------|-5------------------------------|
      1   &   2   &   3   &   4   &    1   &   2   &   3   &   4   &



      D               E7      A7       D
    |----14--15p14-14--------12------|-10--------------10-------------|
    |----15--15----15-15-----14------|-7-----------7------------------|
39  |--14-------------13-----12------|-9---------7--------------------|
    |--------------------------------|---------7----------------------|
    |-------------------------0------|--------------------------------|
    |-0------------------------------|-0---------------0--------------|
      1   &   2   &   3   &   4   &    1   &   2   &   3   &   4   &
     triplet triplet                          triplet


      Eflat                            D
    |--------------------------------|-------------0------------------|
    |-8---------------10/11---11-\10-|-10----------10-----------------|
41  |-8-------8-------8---8---8------|-7-----------7-----------7------|
    |-8---8-------8---8--------------|-7-------7-----------7-------7--|
    |-10--------------10-------------|-9---------------9--------------|
    |--------------------------------|--------------------------------|
      1   &   2   &   3   &   4   &    1   &   2   &   3   &   4   &



      Eflat                            D
    |--------------------------------|-------------0------------------|
    |-----8--------------------------|---------7---------------7---7--|
43  |---------10--8---------------8--|---------------------------7----|
    |-----8-----------12-\10----8----|---------------------7----------|
    |-10--------------10------10-----|-9---9-----------9-------9------|
    |--------------------------------|--------------------------------|
      1   &   2   &   3   &   4   &    1   &   2   &   3   &   4   &
                             triplet                          triplet


      Eflat                            D
    |--------------------------------|-10--------------0--------------|
    |-8---------------10/11---11-----|-7------------------------------|
45  |-8-------8---------------8------|-7-------7---------------7------|
    |-8---8-------8-------8----------|-----7-------7-------7----------|
    |-10--------------10-------------|-9---------------9--------------|
    |--------------------------------|--------------------------------|
      1   &   2   &   3   &   4   &    1   &   2   &   3   &   4   &


                                                                 hold
      Eflat                            D               A         chord
    |--------------------------------|--------------------------------|
    |-----8--------------------------|---------7---------------2--p0--|
47  |---------10--8------------------|---------7---------------2--p0--|
    |-----------------12--10--8------|-----7---------------2----------|
    |-10-----------------------12-10-|-9-----------9-\-4-----------0--|
    |--------------------------------|--------------------------------|
      1   &   2   &   3   &   4   &    1   &   2   &   3   &   4   &
                             triplet


      D                       Dadd9    A/C#            Aadd9/C#
    |-----------------2-------5------|-5---------------0--------------|
    |-3---------------3-------5------|-5---------------0--------------|
49  |-2------------------------------|---------2-------2-------2------|
    |-4-------4---------------4---0--|-----2-------2-------2-------2--|
    |-----0-------0-------0----------|-4---------------4--------------|
    |-0---------------0--------------|--------------------------------|
      1   &   2   &   3   &   4   &    1   &   2   &   3   &   4   &



      Em              A                D               Bm7
    |-----3---5---3---2--------------|-2------------------------------|
    |-----0-------0---2---5-----3-5--|-3-------3-------3--------------|
51  |-----0---0-------2-------2------|-2-------2-------2--------------|
    |-----2---------------2----------|---------4-------4--------------|
    |-----------------0--------------|-----0-------0---2---0-------0--|
    |-2------------------------------|-0-----------------------2/4----|
      1   &   2   &   3   &   4   &    1   &   2   &   3   &   4   &
                             triplet                          triplet


      D                                G               G/B
    |-----------------2-------5---/--|-10-----------------------------|
    |-3---------------3-------5---/--|-10--------------3--------------|
53  |-2------------------------------|---------0-------0--------------|
    |-4-------4---------------4------|-----0-----------0--------------|
    |-----0-------0-------0----------|-----------------2--------------|
    |-0---------------0-----------0--|-5------------------------------|
      1   &   2   &   3   &   4   &    1   &   2   &   3   &   4   &



      D               E7      A7       D               G/B     Asus4
    |-----14--15--14----------12-----|-----2---3---2-----------0------|
    |-----15--15--15--15------14-----|-----3---3---3---3-------3------|
55  |--14-------------13------12-----|---2-------------0-------0------|
    |--------------------------------|-----------------0--------------|
    |-------------------------0------|-----------------2-------0------|
    |-0------------------------------|-0------------------------------|
      1   &   2   &   3   &   4   &    1   &   2   &   3   &   4   &
     triplet                          triplet


      D               E7      A7       straight eighths
    |-----14--15--14----------12-----|-5-\-3---2---0------------------|
    |-----15--15--15--15------14-----|-----------------3---2---0------|
57  |--14-------------13------12-----|-6-\-4---2---0---------------2--|
    |--------------------------------|-----------------4---2---0------|
    |--------------------------------|-----------------------------4--|
    |-0------------------------------|--------------------------------|
      1   &   2   &   3   &   4   &    1   &   2   &   3   &   4   &
     triplet
                          hold
                  hold    chord       hold
          ritard  chord   D           chord
    |---------------------10---------|--------------------------------|
    |-0-------------------7----------|-3------------------------------|
59  |-0---2---0-----------7----------|-2------------------------------|
    |-0-----------2-------7----------|-4------------------------------|
    |-------------0-------0----------|-0------------------------------|
    |-5---4---2-----------0----------|-0------------------------------|
      1   &   2   &   3   &   4   &    1   &   2   &   3   &   4   &
end.

     
Добавлено: 02.10.2013
Другие материалы по этой песне:

Страница создана 28.04.2012
http://primanota.ru/leo-kottke/wonderland-by-night-chords.htm
Привет, Гость.
Предлагаем пройти революционный курс по гитаре.
Подарок от PrimaNota.Ru, забирай!