PrimaNota.ru - самый крупный в мире бесплатный архив песенных текстов, аккордов, табулатур и нот


Leo Kottke - Up Tempo - таба, видео

Регистрация Запомнить меня
Войти через:  Facebook Google Twitter Vk Yandex Mail.ru

Leo Kottke - Up Tempo - таба, видео

Печатать
Просмотров: 113
Уроки эстрадного вокала в Санкт-Петербурге
UP TEMPO
Artist:  Leo Kottke
Album: "Live in Europe" and "Leo Kottke" (Chrysalis)

Transcription and Tablature:  Roger Hess  2/20/97

12 String tuned to open C (CGCGCE)
Slide worn on little finger.

"Up Tempo" has to be one of Leo Kottke's shortest and most energetic pieces. 
It's one of his "wall of sound" powerhouse tunes from the 70's, and is far 
more impressive live than on the recordings. Although it may sound 
difficult, it is fun and easy to play once the rhythms in Part 2 are 
mastered.

This tune sounds great with a magnetic soundhole pickup and the bass cranked 
up a bit. It also gives a little more reason to tune down to C to practice 
Busted Bicycle and the Toad!

Comments and corrections are welcome.

TAB NOTATION
x  = muted string or transitional note
up = up strum (1st string to 6th string)
dn = down strum (6th to 1st)
p  = RH thumb
i  = RH index
m  = RH middle
a  = RH ring
s------s  = section played with bottleneck slide


Intro

Strummed; damp with RH heel or LH
Play 1 or 2 times

|---------------------
|-------0-------0-----
|-0---0-0-0---0-0-0---
|-0---0-0-0---0-0-0---
|-0---0---0---0---0---
|(0)-(0)-(0)-(0)-(0)--
  p   p i p   p i p

  d   d u d   d u d
  n   n p n   n p n


Part 1

              s---s     s----------s     s-----s
|-----------------------------------------------------------------------
|--------------------------------------0-----4\2-0----------------------
|---------------------0----------------------4\2-0---2.----2.------2.---
|---------0---2-/-4-0---2-/-4~~~~~~~-----4---4\2-0----------------------
|-0---2------------------------------0---------------2.--x---2.--2.--2.-
|-----------------------------------------------------------------------
  p   p   p   p     p i p


            s---s     s-----------s    s------s        s---s
|---------------------------------------------------------------------
|-----0------------------------------0-----4\------0---2-/-4---0-----0
|-0h2.--------------0----------------------4\--2------------------2.--
|-------0---2-/-4-0---2-/-4~~~~~~~-----4---4\------0---2-/-4---0-----0
|---2.-----------------------------0-----------2------------------2.--
|---------------------------------------------------------------------


Same as last two lines


              s---s     s----------s     s-----s
|-----------------------------------------------------------------------
|--------------------------------------0-----4\2-0----------------------
|---------------------0----------------------4\2-0---2.----2.------2.---
|---------0---2-/-4-0---2-/-4~~~~~~~-----4---4\2-0----------------------
|-0---2------------------------------0---------------2.--x---2.--2.--2.-
|-----------------------------------------------------------------------
  p   p   p   p     p i p


            s---s     s-----------s    s------s        s---s
|---------------------------------------------------------------------
|-----0------------------------------0-----4\------0---2-/-4---0-----0
|-0h2.--------------0----------------------4\--2------------------2.--
|-------0---2-/-4-0---2-/-4~~~~~~~-----4---4\------0---2-/-4---0-----0
|---2.-----------------------------0-----------2------------------2.--
|---------------------------------------------------------------------




|--------------
|-------0------
|---0h2.----0--
|---------0----
|-0---2.-------
|--------------



Part 2

Play briskly. All thumb strums are down strokes and index finger strums
are upstrokes. Entire section rhythm is alternate thumb down-finger up
strums with accents on indicated beats. Missing strums (between 2 i
strums, for example) are silently executed.


Repeat 3 times
|--------------------------------------
|-5.----x---5/7---7---7--(7)-(7)--7----
|-7.--x-x---7/9-9-9-9-9-9(9)-(9)--7----
|-5.--x-x---5/7-7-7-7-7-7(7)-(7)--7----
|-5.--x-----5/7-7---7---7--------------
|--------------------------------------
  p   p i   p   p i p i p i   i   i


3rd string 5/7 slide changes to 6/7 on second and third pass
|---------------------------------------
|-0-0-----0-0-----0-0-----0-0-----x-----
|-0-5/7---5-5-----4-4-----2-2-----x-----
|-0-0---0-0-0---0-0-0---0-0-0---x-x-----
|---0---0---5---x---4---x---2---x-------
|---------------------------------------
  i p   p i p   p i p   p i p   p i


Played with slide
  s---------------------------------s
|----------------------------------------------------
|-/5-----5-5/7---7---7-------7---7/12.---------------
|-/5---5-5-5/7-7-7-7-7-7-----7---7/12.---------------
|-/5---5-5-5/7-7-7-7-7-7---7-7-x-7/12.---------------
|-/5---5---5/7-7---7---7---7---x---12.---------------
|----------------------------------------------------



Part 3

This section is played with LH ring finger on 1st string and LH middle 
finger on 3rd string. The fingers never leave the strings--they slide 
between all notes even though the slides are not indicated (for clarity). 
The highest position indicated requires a little contortion for the middle 
finger to reach the 14th fret while the ring finger is on the 13th.



|----12-------------12----------
|-------0-0----0-------0-0----0-
|--12-------10---12--------10---
|-------------------------------
|-------------------------------
|-------------------------------

   p m  p i p  i p  m  p i p  i



Play this line 2 times

|----13--------12-------------12---------
|-------0-0-------0-0----0-------0-0----0
|-14--------12--------10---12--------10--
|----------------------------------------
|----------------------------------------
|----------------------------------------


Increasing volume----->

|---13-------12------10------12----------
|------0-0---------0----0---------0------
|-14-----------12--------12--------10----
|----------0---------0----------0--------
|----------------------------------------
|----------------------------------------


|---13-------12-------10-----12------------13-----
|--------0---------0-----0--------0----0----------
|-----14--------12---------12-------10--------14--
|-0-----------------------------------------------
|----------0----------0---------0--------0--------
|-------------------------------------------------


Repeat Part 2, Part 1, Part 3, and Part 2. End Part 2 with strummed 12th 
fret harmonics and descending slide as on recording.
     
Добавлено: 03.07.2013
Другие материалы по этой песне:

Страница создана 03.07.2013
http://primanota.ru/leo-kottke/up-tempo-chords.htm
Привет, Гость.
Предлагаем пройти революционный курс по гитаре.
Подарок от PrimaNota.Ru, забирай!