PrimaNota.ru - самый крупный в мире бесплатный архив песенных текстов, аккордов, табулатур и нот


Leo Kottke - Sleepwalk - таба, видео

Регистрация Запомнить меня
Войти через:  Facebook Google Twitter Vk Yandex Mail.ru

Leo Kottke - Sleepwalk - таба, видео

Печатать
Просмотров: 88
TITLE: SLEEPWALK

Written by J. Farina, S. Farina, A Farina
Artist:  Leo Kottke
Album:  Guitar Music, Essential Leo Kottke

Transcription and Tablature :  Roger Hess   5/25/97
                                            5/28/97 REV1

Tuning DGDGBD (open G) tuned down
12 string Guitar

TAB NOTATION
/   =  slide up
\   =  slide down
h   = hammer
p   = pull off (when within tab)
.   = staccato or damped note
12* = 12th fret harmonic
p   = RH thumb
i   = RH index
m   = RH middle
a   = RH ring
sX  = note played with slide (not fretted)
hsX = note played with slide, not plucked (like a hammer-on)

-----
---0-
--0--
-----
-0---
----- = notes arpeggiated as shown


NOTES:

This piece really consists of only a couple parts, although I've tabbed it 
out with some of the variations. It was loosely transcribed from the 
recordings mentioned above, although I intentionally left out some of Leo's 
timing weirdnesses from Part 4. It's not difficult to play, but the slide 
technique will determine whether it sounds like a haunting melody, or a car 
accident.

Most of the slides up and down are more complex than can be tabbed 
explicitly (as in first part of line 2). Listen to the recording to get the 
feel of the slide voice. And as usual, no timing is shown, although I try to 
space things out in a semi-meaningful manner.

If you play this with a slide, damping with both right and left hands is 
necessary to keep things under control. For most single string slide notes I 
rest the left hand first finger lightly (slide is on pinky) on the string 
behind the slide to dampen it. For slide chords, the LH 1st finger is 
straight and dampens all strings right behind the slide. It's easier said 
than done, but try to land the LH damping finger on the strings just before 
the slide touches, and conversely, remove the slide from the strings just 
before lifting the damping finger. This technique is easier with heavy 
strings/high action, but it comes with practice.

In some cases right hand damping is better, as in lines 18 and 19 (note the 
dots). The chords are played, and just before going to the 1st string 
melody, the RH thumb silently drops on all the strings to kill the chord. 
Your technique will no doubt vary.

If you are into the acoustic pickup/amplification stuff, try playing this 
song with a fair amount of compression and some long-delay reverb (like a 
large hall effect). A dominant magnetic pickup, with some ambient added 
seems to sound good. The compression will do wonders for sustaining the long 
slide notes, and will help kill some of the scarier effects of 
slide-hitting-string.

If playing slide scares your cat/dog/spouse (you know who you are), try 
playing without it. It's a great tune either way.

Comments and corrections are always welcome.


INTRO

|-12*-----------hs2--------------/9--------------\4--------------
|----------------------------------------------------------------
|----------------------------------------------------------------   1
|----------------------------------------------------------------
|----------------------------------------------------------------
|----------------------------------------------------------------


PART 1

|s4-/s5-----------\-------0-----|-0------------------------------
|-------------------------------|--------------------------------
|----------------(0)------------|----------------(0)-------------   2
|---------0---------------------|---------0--------------(0)-----
|-0-----------------------------|-0------------------------------
|-------------------------------|--------------------------------



|-------------------------0-----|-1-------0----------------------
|-----------------1-------------|-------------------------0------
|--------(0)--------------------|--------------------------------   3
|-1-----------------------------|--------------------------------
|-------------------------------|-----------------0--------------
|-------------------------------|--------------------------------



|s4-/s5-----------\-------0-----|-0------------------------------
|-------------------------------|--------------------------------
|-----------------0-------------|-----------------0--------------   4
|---------0---------------------|---------3---------------0------
|-0-----------------------------|--------------------------------
|-------------------------------|-3------------------------------



|-------------------------0-----|-1-------0----------------------
|-----------------1-------1-----|-1-------1---------------1------
|-----------------0-------------|-------------------------0------   5
|---------1---------------------|-----------------1--------------
|-------------------------------|--------------------------------
|-1-----------------------------|--------------------------------



|---0---------------0-----------|--------------------------------
|--0-----------0---------0------|--------------------------------
|-----------------------------0-|--------------------------------   6
|---------0---------------------|------------------------s9--s\--
|-0-----------------------------|s9--------------s9--------------
|-------------------------------|--------s9----------------------
          p     i    m   i    i   i       p       i       p


|----------------s5-------------|--------------------------------
|----------------s5-------------|--------------------------------
|-------------------------------|--------------------------------   7
|s5----------------------s5-----|-7-h-9---7-h-9-----------9------
|s5--------------s5-------------|-7-------7----------------------
|--------s5---------------------|-0-------0----------------------
                          p


|-------------------------------|---------0-----hs2---/--s9---\--
|-------------------------------|--------------------------------
|---0---------------0-----------|--------------------------------   8
|--0------0---------------0-----|s2.-----------------------------
|-0-----------------------------|--------------------------------
|-------------------------------|--------------------------------



|-----------------------------------
|--s7-------------------------------
|-s7--------------------------------                                9
|s7--------------s7-----------------
|--------s7--------------s7---------
|0----------------------------------


PART 2

Same as Part 1 with some minor variations.

|s4-/s5-----------\-------0-----|-0------------------------------
|-------------------------------|--------------------------------
|-----------------0-------------|-----------------0--------------  10
|---------0---------------------|---------0---------------0------
|-0-----------------------------|-0------------------------------
|-------------------------------|--------------------------------



|-------------------------0-----|-1-------0----------------------
|-----------------1-------------|-------------------------1------
|---------0---------------------|--------------------------------  11
|-1-----------------------------|-----------------1--------------
|-------------------------------|--------------------------------
|-------------------------------|--------------------------------



|s4-/s5-----------\-------0-----|-0------------------------------
|-------------------------------|--------------------------------
|-----------------0-------------|-----------------0--------------  12
|---------0---------------------|---------3---------------0------
|-0-----------------------------|--------------------------------
|-------------------------------|-3------------------------------



|-------------------------0-----|-1-------0----------------------
|-----------------1-------1-----|-1-------1---------------1------
|-----0-----------0-------------|-------------------------0------  13
|---------1-------1-------------|-----------------1--------------
|-------------------------------|--------------------------------
|-1-----------------------------|--------------------------------



|---0---------------0-----------|--------------------------------
|--0-----------0---------0------|--------------------------------
|-----------------------------0-|--------------------------------  14
|---------0---------------------|--------------------------------
|-0-----------------------------|s9--------------s9-------\------
|-------------------------------|-------(s9)---------------------
          p     i    m   i    i   i       p       p       p


|----------------s5-------------|--------------------------------
|----------------s5-------------|--------------------------------
|-------------------------------|--------------------------------  15
|--------s5--------------s5-----|-7-h-9---7-h-9-----------9------
|s5--------------s5-------------|-7-------7----------------------
|-------------------------------|-0-------0----------------------
                          p


|-------------------------------|---------0-----hs2---/--s9---\--
|-------------------------------|--------------------------------
|---0---------------0-----------|--------------------------------  16
|--0------0---------------0-----|s2.-----------------------------
|-0-----------------------------|--------------------------------
|-------------------------------|--------------------------------



|-----------------------------------
|--s7-------------------------------
|-s7--------------------------------                               17
|s7--------------s7-----------------
|--------s7-------------------------
|0----------------------------------




PART 3

|------------------------/s9----|s9-----\s7------\s5.------------
|/s5-----s5-------------.-------|--------------------------------
|/s5-----s5-------------.-------|--------------------------------  18
|/s5-----s5-------------.-------|--------------------------------
|-------------------------------|--------------------------------
|-------------------------------|--------------------------------



|------------------------/s9--\-|/s9----\s7-------\s5------------
|-4-------4-------------.-------|--------------------------------
|-5-------5-------------.-------|--------------------------------  19
|-5-------5-------------.-------|--------------------------------
|-------------------------------|--------------------------------
|-------------------------------|--------------------------------



|---0-------------0--------------------0---/s5---------/s7-------
|--0--------------0---------------0--------/s5-------------------
|-0---------------0--------------0---------/s5---------/s7-------  20
|---------0---------------------0----------/s5-------------------
|0------------------------0--------------------------------------
|----------------------------------------------------------------



|----------------------------------------------------------------
|---0-----------------------1------------------------------------
|--0--------------0--------2-------------------------------------  21
|---------0------------------------------------------------------
|-0-----------------------2--------------------------------------
|------------------------------------2----------4----------------



|--------------------------/s9-----s9-----\s7------\s5.----------
|/s5-----s5------------------------------------------------------
|/s5-----s5-----------5.-----------------------------------------  22
|/s5-----s5-------5----------------------------------------------
|-------------5--------------------------------------------------
|----------------------------------------------------------------



|--------------------------/s9--\-/s9----\s7-------\s5-----------
|-4-------4-----------4-.----------------------------------------
|-5-------5-------5----------------------------------------------  23
|-----5-------5--------------------------------------------------
|----------------------------------------------------------------
|----------------------------------------------------------------



|---0-------------0-------------|---------0----------------------
|--0--------------0-------------|---0---------------1------------
|-0---------------0-------------|--0---------------2-------2-----  24
|---------0---------------------|-0------------------------------
|0------------------------0-----|-----------------2--------------
|-------------------------------|--------------------------------



|-------------------------0-----|-----------------/5-------------
|-----------------1-------1-----|-0------------------------------
|---------2-------2-------------|---------0----------------------  25
|-------------------------------|--------------------------------
|-----------------2-------------|-0---------------0--------------
|-0-----------------------------|--------------------------------



|---------------/s7-------------|--------------------------------
|-------------------------------|------------------------s7------
|---------0-----/s7-------------|--------s7----------------------  26
|-0-----------------------------|----------------s7--------------
|-------------------------------|-s7-----------------------------
|-------------------------------|--------------------------------


PART 4

Similar to PARTS 1 and 2 with different ending.

|s4-/s5-----------\-------0-----|-0------------------------------
|-------------------------------|--------------------------------
|-----------------0-------------|-----------------0--------------  27
|---------0---------------------|---------0---------------0------
|-0-----------------------------|-0------------------------------
|-------------------------------|--------------------------------



|-------------------------0-----|-1-------0----------------------
|-----------------1-------------|-------------------------1------
|---------0---------------------|--------------------------------  28
|-1-----------------------------|-----------------1--------------
|-------------------------------|--------------------------------
|-------------------------------|--------------------------------



|s4-/s5-----------\-------0-----|-0------------------------------
|-------------------------------|--------------------------------
|-----------------0-------------|-----------------0--------------  29
|---------0---------------------|---------3---------------0------
|-0-----------------------------|--------------------------------
|-------------------------------|-3------------------------------



|-------------------------0-----|-1-------0----------------------
|-----------------1-------1-----|-1-------1---------------1------
|-----------------0-------------|-------------------------0------  30
|---------1---------------------|-----------------1--------------
|-------------------------------|--------------------------------
|-1-----------------------------|--------------------------------



|---0---------------0-----------|--------------------------------
|--0-----------0---------0------|--------------------------------
|-----------------------------0-|--------------------------------  31
|---------0---------------------|--------------------------------
|-0-----------------------------|s9--------------s9-------\------
|-------------------------------|-------(s9)---------------------
          p     i    m   i    i   i       p       p


|----------------s5-------------|--------------------------------
|----------------s5-------------|--------------------------------
|-------------------------------|--------------------------0-----  32
|--------s5--------------s5-----|-7-h-9---7--\--5----5-----0-----
|s5--------------s5-------------|-7------------------5-----0-----
|-------------------------------|-0------------------0-----------
                          p


|-------------------------------|--------------------------------
|-------------------------------|--------------------------------
|---------0--------------s5-----|-5-------5----------------------  33
|----------------s5------s5-----|-5-------5-------7---h---9---\--
|-0-----------------------------|-5-------5-------7-----------\--
|-------------------------------|-----------------0--------------
                  p       m
                          i

|-------------------------------|--------------------------------
|-------------------------------|--------------------------------
|-------------------------------|--------------------------------  34
|-5-----------------------------|--------------------------------
|-5-----------------------------|--------------------------------
|-------------------------------|--------------------------------




END

|-12*------------s2--------------/9--------------\4--------------
|----------------------------------------------------------------
|----------------------------------------------------------------  35
|----------------------------------------------------------------
|----------------------------------------------------------------
|----------------------------------------------------------------




Alternate method for PARTS 1, 2, and 4.

This has some minor but interesting variations that were worth tabbing
out (taken from Leed's recording).


|s4-/s5-----------\-------0-----|-0------------------------------
|-------------------------------|--------------------------------
|----------------(0)------------|----------------(0)-------------  36
|---------0---------------------|---------0---------------0------
|-0-----------------------------|-0------------------------------
|-------------------------------|--------------------------------



|-------------------------0-----|-1-------0----------------------
|-----------------1-------------|-------------------------1------
|---------1---------------------|--------------------------------  37
|-1-----------------------------|--------------------------------
|-------------------------------|-----------------0--------------
|-------------------------------|--------------------------------



|s4-/s5-----------\-------0-----|-0------------------------------
|-------------------------------|--------------------------------
|-----------------0-------------|-----------------0--------------  38
|---------0---------------------|---------3---------------0------
|-0-----------------------------|--------------------------------
|-------------------------------|-3------------------------------



|-------------------------0-----|-1-------0----------------------
|-----------------1-------1-----|-1-------1---------------1------
|-----------------1-------------|-----------------1--------------  39
|---------1---------------------|--------------------------------
|-------------------------------|--------------------------------
|-1-----------------------------|--------------------------------



|---0---------------0-----------|--------------------------------
|--0-----------0---------0------|--------------------------------
|-----------------------------0-|--------------------------------  40
|---------0---------------------|-2---------------2-------0------
|-0-----------------------------|---------4---------------------/
|-------------------------------|--------------------------------
          p     i    m   i    i   i       p       i       i


|----------------s5------s5-----|--------------------------------
|----------------s5------s5-----|--------------------------------
|-------------------------------|--------------------------------  41
|------------------------s5-----|s7-/s9--s7-/s9----------s9---\--
|s5--------------s5-------------|--------------------------------
|--------s5---------------------|-----------------0--------------
                          p       m       m       p       p


|-------------------------------|---------0-----hs2---/--s9---\--
|-------------------------------|--------------------------------
|-0-----------------0-----------|--------------------------------  42
|---------0--------0------0-----|-2.-----------------------------
|-0---------------0-------------|--------------------------------
|-------------------------------|--------------------------------



|-------------------------------|--------------------------------
|--s7---------------------------|--------------------------------
|-s7----------------------------|--------------------------------  43
|s7-----------------------------|--------------------------------
|-------------------------------|--------------------------------
|0------------------------------|--------------------------------

end.

     
Добавлено: 26.11.2013
Другие материалы по этой песне:
  • Аккорды и текст

Страница создана 03.09.2013
http://primanota.ru/leo-kottke/sleepwalk-chords.htm
Привет, Гость.
Предлагаем пройти революционный курс по гитаре.
Подарок от PrimaNota.Ru, забирай!