PrimaNota.ru - самый крупный в мире бесплатный архив песенных текстов, аккордов, табулатур и нот


Leo Kottke - Short Wave - таба, видео

Регистрация Запомнить меня
Войти через:  Facebook Google Twitter Vk Yandex Mail.ru

Leo Kottke - Short Wave - таба, видео

Печатать
Просмотров: 83
		   (Tab source *Home and Away* and *Live in Winnipeg*)

Tab by Jim *Jet* Jarrell/Charlie *Mr Rogers* Weidhas

Dropped D
X   mute (those that *stand out*...there's lots of others!)
/   slide
 >  harmonic
h   hammer-on
p   pull-off

INTRO:
1.
|----------------------------------
|---5/7--------7x------------------
|---5/7--------7x--------- 9>------   Repeat 7X
|---5/7----7-----------x-------x---
|------------------------- 9>------
|---0----------------0-------------

2.
|------------------------------0--
|------------------0---2---3------
|--------------2------------------
|-0------2------------------------
|--------------0------------------
|----2----------------------------

Section A
3.
|----------------------------------------0x--------------------
|----5/7-------7x----------0------------------------2--0-------
|----5/7-------7x----------0---------------------2--------2--0-
|----5/7---7-------- 7>-----------------------------2----------
|---------------------------------------------0----------------
|----0-------------------------4--5/3x-------------------------


4.
|----------------------------------------0x-------------------
|----5/7-------7x----------0---------------------------0--2---
|----5/7-------7x----------0------------------------2---------
|----5/7---7-------- 7>--------------------------2------------
|---------------------------------------------0-----0---------
|----0-------------------------4--5/3x------------------------

  Repeat Section A
Section B
5.
|----------------------------------------------
|---0------0----------0----0---------0---------
|---3/4----4----------4h7--4---------4---------
|---0------0-------0-------------0---0------0--
|--------------0x-------------0x--------0x-----
|---4/5---------------5--------------5---------

6.
|----------------------------------------------
|---0------0----------0----0---------0---------
|---3/4----4----------4h7--4---------2---------
|---0------0-------0-------------0---0------0--
|--------------0x-------------0x--------0x-----
|---4/5---------------5--------------4---------

7.
|----------------------------------------
|---0------0----------0----0---------0---
|---3/4----4----------4h7--4---------4---
|---0------0-------0-------------0---0---
|--------------0x-------------0x---------
|---4/5---------------5--------------5---

8.
|-----------------------------------
|-------------------2---------------
|-------------------2---------------
|-------------------2---------------
|----------------0------------------
|---4--5--4/2x---------4--5--4/2x---

Section C

9.
|---------------------------------------------------------
|---------------------------------------------------------
|-----------------------------------0---------0---------0-
|---2/-4--------4------0-------------------5-----4--------
|----------0x---------------------------------------0x----
|---0--------------0x------4--5/4x------0x----------------

10.
|-------------------------------------------------------
|-------------------------------------------------------
|-----------------------------------0---------0---------
|---2/-4--------4------0-------------------5------------
|----------0x------------------------------------2---0--
|---0--------------0x------4--5/4x------0x--------------

   Repeat Section C

Section D

11.
|--------------------------------------------------
|-----------0------------------------0----0--------
|---4/7-----7-----7------4-----7-----3/4--4--------
|---2/5--5-----7--7h9p7--4-----4--0--0----0------0-
|-----------0------------0-----0-------------0x----
|---0-------------0---------0--------4/5-----------

12.
|-----------------------------------------------------------
|---0----0-------0-------0----0-----------0-----------------
|---4h7--4-------4-------3/4--4-----0-----0----0------------
|-------------0--0----0--0----0--7--7----------0------------
|-----------0-------0---------------7h9p7----4-------4/2p0--
|---5------------5-------4/5----------------------5x--------
                                                   (slow slide)

Section E

13.
|----7-----------------------------------------------
|----7h8p7---------------0h2h3----2/1x---------------
|----7------7--------0---0h2------2/1x---------------
|---------------7--------0h2h4----2/1x---------------
|---------------------------------0------0-----------
|-------------------------------------------2/-7x----

14.
|------------------------------------------------
|----0x----------------2--------2h3--------------
|----0x----------------2-----2-------------------
|----------0-----2--------------2h4--------------
|-------X-----------0-----0-----------0----------
|-------------2-------------------------2/-14x---

15.
|-----0x------------------------------------------
|-----0x---0x---------------------7h8-------------
|----------0x----2-----2----------7---------------
|----------------------2------7---7h9-------------
|-------------0-----------------------0-----------
|-------------------2------7-------------2/--14x--

16.
|------0x--------------------------
|------0x---0x------------2/1x-----
|-----------0x------------2/1x-----    Repeat Sections
|-------------------2-----2/1x-----      A through E
|----------------------0-----------
|---------------2------------------


Section F

17.
|-----------------------------------------------------------
|---------------------------0------0----------0---------0---
|---------------------------2------2----------0---------0---
|-------------0---2---4--4-----0----------------------------
|----2---4-----------------------------4---2------0---------
|----------------------------------------------------5------

Repeat 17  4X

18.
|----------------------------------2-----0---
|----------------------------------3-----0---
|----------------------0--2--4--4-----0------
|----------0--2--4--4------------------------
|----2--4------------------------------------
|--------------------------------------------

19.
|--------------------------------------------
|----------0-----------0---------------------
|----------0-----------0-----------0---------
|----4--2--------------------------0------0--
|-------------5--4--2-----0------------------
|----------------------------5--4------2-----

Repeat Section A through D

Ending

|----7---------------------------------10----
|----7h8p7-------------0h2h3---2------7------
|----7-------7-----0---0h2-----2-----7-------
|---------------7------0h2h4---2----7--------
|--------------------------------------------
|---------------------------------0----------

end.

     
Добавлено: 01.07.2013
Другие материалы по этой песне:
  • Аккорды и текст

Страница создана 01.07.2013
http://primanota.ru/leo-kottke/short-wave-chords.htm
Привет, Гость.
Предлагаем пройти революционный курс по гитаре.
Подарок от PrimaNota.Ru, забирай!