PrimaNota.ru - самый крупный в мире бесплатный архив песенных текстов, аккордов, табулатур и нот


Leo Kottke - Red And White - таба, видео

Регистрация Запомнить меня
Войти через:  Facebook Google Twitter Vk Yandex Mail.ru

Leo Kottke - Red And White - таба, видео

Печатать
Просмотров: 73
RED & WHITE
by Leo Kottke

transcribed by brian j robinson (nairbnosnibor@hotmail.com)
from  Leo Kottke/Peter Lang/John Fahey

-six-string
dropped D tuning-
(pitches raised up a bit on album,
or maybe my guitar was just out of tune)

*= harmonic note (in measure 80)
h= hammer-on to the next note shown
p= pull-off to the next note shown
b= bend to the next note shown
(All the ^Ónext notes^Ô are NOT picked, obviously)

-there are some VERY slight variations in the sections that are repeated 
throughout the song, but they are hardly noticable, since the song is played 
so fast
-check out tabpigs.org for good kottke tabs, i've submitted
a couple songs there, but most are done by the "tabpigs", a group
of leo fans


  E|--------------------------------|--------------------------------|
  B|---------3-----------3----------|-3-----------3------------------|
1 G|-------------2---------------2--|-----2---------------2-------2--|
  D|---------0---------------0------|---------0---------------0------|
  A|--------------------------------|--------------------------------|
  D|-0---------------0--------------|-0---------------0--------------|
     1   &   2   &   3   &   4   &    1   &   2   &   3   &   4   &

  |--------------------------------|-------------2------------------|
  |---------3-----------3----------|-3-------------------3-------0--|
3 |-----2-------2---------------2--|-----2--------------------------|
  |---------0---------------0------|---------0---------------0------|
  |--------------------------------|--------------------------------|
  |-0---------------0--------------|-0---------------0--------------|
    1   &   2   &   3   &   4   &    1   &   2   &   3   &   4   &

        ^this note is often not played throughout song
  |---------3----------------------|-------------0-------2----------|
  |---------------------2----------|-3---------------------------0--|
5 |----(0)------0---------------2--|-----2--------------------------|
  |---------0---------------2------|---------0---------------0------|
  |-----------------0--------------|--------------------------------|
  |-5------------------------------|-0---------------0--------------|
    1   &   2   &   3   &   4   &    1   &   2   &   3   &   4   &

  |---------3----------------------|-------------3-------2----------|
  |---------------------2----------|-3---------------------------0--|
7 |-----0-------0---------------2--|-----2--------------------------|
  |---------0---------------2------|---------0---------------0------|
  |-----------------0--------------|--------------------------------|
  |-5------------------------------|-0---------------0--------------|
    1   &   2   &   3   &   4   &    1   &   2   &   3   &   4   &

  |---------3----------------------|-------------0-------2----------|
  |---------------------2----------|-3---------------------------0--|
9 |-----0-------0---------------2--|-----2--------------------------|
  |---------0---------------2------|---------0---------------0------|
  |-----------------0--------------|--------------------------------|
  |-5------------------------------|-0---------------0--------------|
    1   &   2   &   3   &   4   &    1   &   2   &   3   &   4   &

  |---------3----------------------|-------------3-------2----------|
  |---------------------2----------|-3---------------------------0--|
11|-----0-------0---------------2--|-----2--------------------------|
  |---------0---------------2------|---------0---------------0------|
  |-----------------0--------------|--------------------------------|
  |-5------------------------------|-0---------------0--------------|
    1   &   2   &   3   &   4   &    1   &   2   &   3   &   4   &

  |---------3----------------------|-------------0-------2----------|
  |---------------------2----------|-3---------------------------0--|
13|-----0-------0---------------2--|-----2--------------------------|
  |---------0---------------2------|---------0---------------0------|
  |-----------------0--------------|--------------------------------|
  |-5------------------------------|-0---------------0--------------|
    1   &   2   &   3   &   4   &    1   &   2   &   3   &   4   &

  |---------3----------------------|-------------3-------2----------|
  |---------------------2----------|-3---------------------------0--|
15|-----0-------0---------------2--|-----2--------------------------|
  |---------0---------------2------|---------0---------------0------|
  |-----------------0--------------|--------------------------------|
  |-5------------------------------|-0---------------0--------------|
    1   &   2   &   3   &   4   &    1   &   2   &   3   &   4   &

  |---------3----------------------|-------------0-------2----------|
  |---------------------2----------|-3---------------------------0--|
17|-----0-------0---------------2--|-----2--------------------------|
  |---------0---------------2------|---------0---------------0------|
  |-----------------0--------------|--------------------------------|
  |-5------------------------------|-0---------------0--------------|
    1   &   2   &   3   &   4   &    1   &   2   &   3   &   4   &

  |---------3----------------------|-------------3-------2----------|
  |---------------------2----------|-3------------------------------|
19|-----0-------0---------------2--|-----2-----------------------0--|
  |---------0---------------2------|---------0---------------0------|
  |-----------------0--------------|--------------------------------|
  |-5------------------------------|-0---------------0--------------|
    1   &   2   &   3   &   4   &    1   &   2   &   3   &   4   &

  |-1p--0--------------------------|-------------5------------------|
  |-------------3-------2p--0------|-6b--7---hold bend---7b--6------|
21|--------------------------------|----------------------------(0)-|
  |---------0---------------0------|---------0---------------0------|
  |-2---------------0--------------|--------------------------------|
  |--------------------------------|-0---------------0--------------|
    1   &   2   &   3   &   4   &    1   &   2   &   3   &   4   &

  |-1p--0--------------------------|-------------2------------------|
  |-------------3-------2p--0------|---------------------3----------|
23|--------------------------------|-2------------------------------|
  |---------0---------------0------|---------0---------------0------|
  |-2---------------0--------------|--------------------------------|
  |--------------------------------|-0---------------0--------------|
    1   &   2   &   3   &   4   &    1   &   2   &   3   &   4   &

  |-1p--0--------------------------|-------------5------------------|
  |-------------3-------2p--0------|-6b--7---hold bend---7b--6------|
25|--------------------------------|----------------------------(0)-|
  |---------0---------------0------|---------0---------------0------|
  |-2---------------0--------------|--------------------------------|
  |--------------------------------|-0---------------0--------------|
    1   &   2   &   3   &   4   &    1   &   2   &   3   &   4   &

  |---------------------0----------|--------------------------------|
  |-----2--------------------------|-3-----------3------------------|
27|-------------2---------------2--|---------------------2-------0--|
  |---------2---------------2------|---------0---------------0------|
  |-0---------------0--------------|--------------------------------|
  |--------------------------------|-0---------------0--------------|
    1   &   2   &   3   &   4   &    1   &   2   &   3   &   4   &

  |-1p--0--------------------------|-------------5------------------|
  |-------------3-------2p--0------|-6b--7---hold bend---7b--6------|
29|--------------------------------|----------------------------(0)-|
  |---------0---------------0------|---------0---------------0------|
  |-2---------------0--------------|--------------------------------|
  |--------------------------------|-0---------------0--------------|
    1   &   2   &   3   &   4   &    1   &   2   &   3   &   4   &

  |-1p--0--------------------------|-------------2------------------|
  |-------------3-------2p--0------|---------------------3----------|
31|--------------------------------|-2------------------------------|
  |---------0---------------0------|---------0---------------0------|
  |-2---------------0--------------|--------------------------------|
  |--------------------------------|-0---------------0--------------|
    1   &   2   &   3   &   4   &    1   &   2   &   3   &   4   &

  |-1p--0--------------------------|-------------5------------------|
  |-------------3-------2p--0------|-6b--7---hold bend---7b--6------|
33|--------------------------------|----------------------------(0)-|
  |---------0---------------0------|---------0---------------0------|
  |-2---------------0--------------|--------------------------------|
  |--------------------------------|-0---------------0--------------|
    1   &   2   &   3   &   4   &    1   &   2   &   3   &   4   &

  |---------------------0----------|--------------------------------|
  |-----2--------------------------|-3-----------3------------------|
35|-------------2---------------2--|---------------------2-------2--|
  |---------2---------------2------|---------0---------------0------|
  |-0---------------0--------------|--------------------------------|
  |--------------------------------|-0---------------0--------------|
    1   &   2   &   3   &   4   &    1   &   2   &   3   &   4   &

  |--------------------------------|
  |-3-----------3------------------|
37|-----2---------------2------(0)-|
  |---------0---------------0------|
  |--------------------------------|
  |-0---------------0--------------|
    1   &   2   &   3   &   4   &

  |--------------------------------|--------------------------------|
  |--------------------------------|-----2---------------3----------|
38|-----4---------------4----------|--------------------------------|
  |-------------0---------------0--|-------------0---------------0--|
  |---------0---------------0------|---------0---------------0------|
  |-5---------------4--------------|-2---------------0--------------|
    1   &   2   &   3   &   4   &    1   &   2   &   3   &   4   &

  |--------------------------------|--------------------------------|
  |--------------------------------|--------------------------------|
40|-----4---------------4----------|-4-------6-------7--------------|
  |-------------0---------------0--|-----------------------------0--|
  |---------0---------------0------|---------0---------------0------|
  |-5---------------4--------------|-5---------------0--------------|
    1   &   2   &   3   &   4   &    1   &   2   &   3   &   4   &

  |--------------------------------|--------------------------------|
  |--------------------------------|-----2---------------3----------|
42|-----4---------------4----------|--------------------------------|
  |-------------0---------------0--|-------------0---------------0--|
  |---------0---------------0------|---------0---------------0------|
  |-5---------------4--------------|-2---------------0--------------|
    1   &   2   &   3   &   4   &    1   &   2   &   3   &   4   &

  |--------------------------------|----------------|
  |--------------------------------|----------------|
44|-----4---------------4----------|-4-------6------|
  |-------------0---------------0--|----------------|
  |---------0---------------0------|---------0------|
  |-5---------------4--------------|-5--------------|
    1   &   2   &   3   &   4   &    1   &   2   &

  |--------------------------------|--------------------------------|
  |--------------------------------|-------------7---------------0--|
46|-7-------7-----------7----------|-7-------------------7----------|
  |-------------7---------------7--|-----7--------------------------|
  |---------0---------------0------|---------0---------------0------|
  |-0---------------0--------------|-0---------------0--------------|
    1   &   2   &   3   &   4   &    1   &   2   &   3   &   4   &

  |---------3----------------------|-------------0-------2----------|
  |---------------------2----------|-3---------------------------0--|
48|-----0-------0---------------2--|-----2--------------------------|
  |---------0---------------2------|---------0---------------0------|
  |-----------------0--------------|--------------------------------|
  |-5------------------------------|-0---------------0--------------|
    1   &   2   &   3   &   4   &    1   &   2   &   3   &   4   &

  |---------3----------------------|-------------3-------2----------|
  |---------------------2----------|-3---------------------------0--|
50|-----0-------0---------------2--|-----2--------------------------|
  |---------0---------------2------|---------0---------------0------|
  |-----------------0--------------|--------------------------------|
  |-5------------------------------|-0---------------0--------------|
    1   &   2   &   3   &   4   &    1   &   2   &   3   &   4   &

  |---------3----------------------|-------------0-------2----------|
  |---------------------2----------|-3---------------------------0--|
52|-----0-------0---------------2--|-----2--------------------------|
  |---------0---------------2------|---------0---------------0------|
  |-----------------0--------------|--------------------------------|
  |-5------------------------------|-0---------------0--------------|
    1   &   2   &   3   &   4   &    1   &   2   &   3   &   4   &

  |---------3----------------------|--------------------------------|
  |---------------------2----------|-3-----------3------------------|
54|-----0-------0---------------2--|-----2--------------------------|
  |---------0---------------2------|---------0-----------0-------0--|
  |-----------------0--------------|-----------------0-------1------|
  |-5------------------------------|-0------------------------------|
    1   &   2   &   3   &   4   &    1   &   2   &   3   &   4   &


          -I^Òm sure some of this part isn^Òt quite right-

                                                  ^little slide down
  |--------------------------------|-------------3s-----------------|
  |---------3-----------3----------|-0------------------------------|
56|-----4-------4---------------4--|-----0---------------0-------0--|
  |---------4---------------4------|---------0-------?-------0------|
  |-2---------------0--------------|-----------------?--------------|
  |--------------------------------|-5---------------?--------------|
    1   &   2   &   3   &   4   &    1   &   2   &   3   &   4   &

                                      -heres the couple of measures
  |--------------------------------|-----------------0--------------|
  |---------1-----------0----------|---------0h--2-------2p--0------|
58|-----2-------0---------------0--|-----2-----------------------2--|
  |---------2---------------0------|---------2---------------2------|
  |-0------------------------------|-0---------------0--------------|
  |-----------------5--------------|--------------------------------|
    1   &   2   &   3   &   4   &    1   &   2   &   3   &   4   &

   that have been kicking my ass- just can^Òt get 59&60 to sound right
  |-------------0------------------|
  |-----0h--2----------------------|
60|-2-------------------0-------0--|
  |---------2---------------0------|
  |-0---------------0--------------|
  |--------------------------------|
    1   &   2   &   3   &   4   &

  |---------7-----------5----------|-------------7------------------|
  |-----8-------8---------------5--|-7------------------10---7---8--|
61|---------7---------------6------|---------7----------------------|
  |-0---------------7--------------|-0---------------0--------------|
  |--------------------------------|--------------------------------|
  |--------------------------------|--------------------------------|
    1   &   2   &   3   &   4   &    1   &   2   &   3   &   4   &

  |---------7-----------5----------|-------------5------------------|
  |-------------8---------------5--|-7-------------------7---5------|
63|---------7---------------6------|---------7----------------------|
  |-0---------------7--------------|-0---------------0--------------|
  |--------------------------------|--------------------------------|
  |--------------------------------|--------------------------------|
    1   &   2   &   3   &   4   &    1   &   2   &   3   &   4   &

  |---------7-----------5----------|-------------7------------------|
  |-----8-------8---------------5--|-7------------------10---7---8--|
65|---------7---------------6------|---------7----------------------|
  |-0---------------7--------------|-0------------------------------|
  |--------------------------------|-----------------0--------------|
  |--------------------------------|--------------------------------|
    1   &   2   &   3   &   4   &    1   &   2   &   3   &   4   &

  |---------7-----------5----------|-------------5------------------|
  |-------------8---------------5--|-7-------------------7---5------|
67|---------7---------------6------|---------7----------------------|
  |-0---------------7--------------|-0---------------0--------------|
  |--------------------------------|--------------------------------|
  |--------------------------------|--------------------------------|
    1   &   2   &   3   &   4   &    1   &   2   &   3   &   4   &

  |---------3----------------------|-------------0-------2----------|
  |-0-------------------2----------|-3---------------------------0--|
69|-------------0---------------2--|-----2--------------------------|
  |---------0---------------2------|---------0---------------0------|
  |-----------------0--------------|--------------------------------|
  |-5------------------------------|-0---------------0--------------|
    1   &   2   &   3   &   4   &    1   &   2   &   3   &   4   &

  |---------3----------------------|-------------3-------2----------|
  |---------------------2----------|-3---------------------------0--|
71|-----0-------0---------------2--|-----2--------------------------|
  |---------0---------------2------|---------0---------------0------|
  |-----------------0--------------|--------------------------------|
  |-5------------------------------|-0---------------0--------------|
    1   &   2   &   3   &   4   &    1   &   2   &   3   &   4   &

  |---------3----------------------|-------------0-------2----------|
  |---------------------2----------|-3---------------------------0--|
73|-----0-------0---------------2--|-----2--------------------------|
  |---------0---------------2------|---------0---------------0------|
  |-----------------0--------------|--------------------------------|
  |-5------------------------------|-0---------------0--------------|
    1   &   2   &   3   &   4   &    1   &   2   &   3   &   4   &

  |---------3----------------------|-------------2------------------|
  |---------------------2----------|-3-------------------3----------|
75|-----0-------0---------------2--|-----2-----------------------0--|
  |---------0---------------2------|---------0---------------0------|
  |-----------------0--------------|--------------------------------|
  |-5------------------------------|-0---------------0--------------|
    1   &   2   &   3   &   4   &    1   &   2   &   3   &   4   &

                    ^don^Òt pick this note
                    ^   ^but do pick this one
  |---------3s--2p--0---0----------|-------------0-------2----------|
  |-------------------------3p--2--|-----------------------------0--|
77|-----0-------0------------------|-2------------------------------|
  |---------0---------------0------|-----0-------------------0------|
  |-----------------0--------------|---------0----------------------|
  |-5------------------------------|-0---------------0--------------|
    1   &   2   &   3   &   4   &    1   &   2   &   3   &   4   &

  |---------3s--2p--0---0----------|--------------------------------|
  |-------------------------3p--2--|-------------3---------------0--|
79|-----0-------0------------------|---------------------2----------|
  |---------0---------------0------|-7*----------------------0------|
  |-----------------0--------------|---------0----------------------|
  |-5------------------------------|-0---------------0--------------|
    1   &   2   &   3   &   4   &    1   &   2   &   3   &   4   &

  |---------3s--2p--0---0----------|-------------0-------2----------|
  |-------------------------3p--2--|-----------------------------0--|
81|-----0-------0------------------|-2------------------------------|
  |---------0---------------0------|-----0-------------------0------|
  |-----------------0--------------|---------0----------------------|
  |-5------------------------------|-0---------------0--------------|
    1   &   2   &   3   &   4   &    1   &   2   &   3   &   4   &

  |---------3----------------------|-------------2------------------|
  |---------------------2----------|-3-------------------3----------|
83|-----0-------0---------------2--|-----2-----------------------0--|
  |---------0---------------2------|---------0---------------0------|
  |-----------------0--------------|--------------------------------|
  |-5------------------------------|-0---------------0--------------|
    1   &   2   &   3   &   4   &    1   &   2   &   3   &   4   &

  |-1p--0--------------------------|-------------5------------------|
  |-------------3-------2p--0------|-6b--7---hold bend---7b--6------|
85|--------------------------------|----------------------------(0)-|
  |---------0---------------0------|---------0---------------0------|
  |-2---------------0--------------|--------------------------------|
  |--------------------------------|-0---------------0--------------|
    1   &   2   &   3   &   4   &    1   &   2   &   3   &   4   &

  |-1p--0--------------------------|-------------2------------------|
  |-------------3-------2p--0------|---------------------3----------|
87|--------------------------------|-2------------------------------|
  |---------0---------------0------|---------0---------------0------|
  |-2---------------0--------------|--------------------------------|
  |--------------------------------|-0---------------0--------------|
    1   &   2   &   3   &   4   &    1   &   2   &   3   &   4   &

  |-1p--0--------------------------|-------------5------------------|
  |-------------3-------2p--0------|-6b--7---hold bend---7b--6------|
89|--------------------------------|----------------------------(0)-|
  |---------0---------------0------|---------0---------------0------|
  |-2---------------0--------------|--------------------------------|
  |--------------------------------|-0---------------0--------------|
    1   &   2   &   3   &   4   &    1   &   2   &   3   &   4   &

  |---------------------0----------|--------------------------------|
  |-----2--------------------------|-3-----------3------------------|
91|-------------2---------------2--|---------------------2-------0--|
  |---------2---------------2------|---------0---------------0------|
  |-0---------------0--------------|--------------------------------|
  |--------------------------------|-0---------------0--------------|
    1   &   2   &   3   &   4   &    1   &   2   &   3   &   4   &

  |--------------------------------|--------------------------------|
  |--------------------------------|-----2---------------3----------|
93|-----4---------------4----------|--------------------------------|
  |-------------0---------------0--|-------------0---------------0--|
  |---------0---------------0------|---------0---------------0------|
  |-5---------------4--------------|-2---------------0--------------|
    1   &   2   &   3   &   4   &    1   &   2   &   3   &   4   &

  |--------------------------------|--------------------------------|
  |--------------------------------|--------------------------------|
95|-----4---------------4----------|-4-------6-------7--------------|
  |-------------0---------------0--|-----------------------------0--|
  |---------0---------------0------|---------0---------------0------|
  |-5---------------4--------------|-5---------------0--------------|
    1   &   2   &   3   &   4   &    1   &   2   &   3   &   4   &

  |--------------------------------|--------------------------------|
  |--------------------------------|-----2---------------3----------|
97|-----4---------------4----------|--------------------------------|
  |-------------0---------------0--|-------------0---------------0--|
  |---------0---------------0------|---------0---------------0------|
  |-5---------------4--------------|-2---------------0--------------|
    1   &   2   &   3   &   4   &    1   &   2   &   3   &   4   &

  |--------------------------------|----------------|
  |--------------------------------|----------------|
99|-----4---------------4----------|-4-------6------|
  |-------------0---------------0--|----------------|
  |---------0---------------0------|---------0------|
  |-5---------------4--------------|-5--------------|
    1   &   2   &   3   &   4   &    1   &   2   &

  |--------------------------------|--------------------------------|
  |--------------------------------|-------------7---------------0--|
101-7-------7-----------7----------|-7-------------------7----------|
  |-------------7---------------7--|-----7--------------------------|
  |---------0---------------0------|---------0---------------0------|
  |-0---------------0--------------|-0---------------0--------------|
    1   &   2   &   3   &   4   &    1   &   2   &   3   &   4   &

  |---------3----------------------|-------------0-------2----------|
  |---------------------2----------|-3---------------------------0--|
103-----0-------0---------------2--|-----2--------------------------|
  |---------0---------------2------|---------0---------------0------|
  |-----------------0--------------|--------------------------------|
  |-5------------------------------|-0---------------0--------------|
    1   &   2   &   3   &   4   &    1   &   2   &   3   &   4   &

  |---------3----------------------|-------------3-------2----------|
  |---------------------2----------|-3---------------------------0--|
105-----0-------0---------------2--|-----2--------------------------|
  |---------0---------------2------|---------0---------------0------|
  |-----------------0--------------|--------------------------------|
  |-5------------------------------|-0---------------0--------------|
    1   &   2   &   3   &   4   &    1   &   2   &   3   &   4   &

  |---------3----------------------|-------------0-------2----------|
  |---------------------2----------|-3---------------------------0--|
107-----0-------0---------------2--|-----2--------------------------|
  |---------0---------------2------|---------0---------------0------|
  |-----------------0--------------|--------------------------------|
  |-5------------------------------|-0---------------0--------------|
    1   &   2   &   3   &   4   &    1   &   2   &   3   &   4   &

  |---------3----------------------|-------------2------------------|
  |---------------------2----------|-3-------------------3----------|
109-----0-------0---------------2--|-----2--------------------------|
  |---------0---------------2------|---------0---------------0------|
  |-----------------0--------------|--------------------------------|
  |-5------------------------------|-0---------------0--------------|
    1   &   2   &   3   &   4   &    1   &   2   &   3   &   4   &

  |---------7-----------5----------|-3-----------3------------------|
  |-----8-----------------------5--|-----3---------------3----------|
111---------7---------------6------|---------4---------------4------|
  |-0---------------0--------------|-0---------------0--------------|
  |--------------------------------|--------------------------------|
  |--------------------------------|--------------------------------|
    1   &   2   &   3   &   4   &    1   &   2   &   3   &   4   &

  |---------------------0----------|--------------------------------|
  |-----2--------------------------|-3------------------------------|
113-------------2---------------2--|-2------------------------------|
  |---------2---------------2------|-0------------------------------|
  |-0---------------0--------------|-0------------------------------|
  |--------------------------------|-0------------------------------|
    1   &   2   &   3   &   4   &    1   &   2   &   3   &   4   &

     
Добавлено: 15.08.2013
Другие материалы по этой песне:

Страница создана 27.05.2012
http://primanota.ru/leo-kottke/red-and-white-chords.htm
Привет, Гость.
Предлагаем пройти революционный курс по гитаре.
Подарок от PrimaNota.Ru, забирай!