PrimaNota.ru - самый крупный в мире бесплатный архив песенных текстов, аккордов, табулатур и нот


Leo Kottke - Peg Leg - таба, видео

Регистрация Запомнить меня
Войти через:  Facebook Google Twitter Vk Yandex Mail.ru

Leo Kottke - Peg Leg - таба, видео

Печатать
Просмотров: 117
This is the first Kottke song I ever heard, and I decided then and there 
that I had to learn how to play Leo's music. I didn't write this tab, and I 
can't figure out who did, but I have made various additions and corrections 
over the years. I'll credit it to Bruce Head of www.guitarmusic.org because 
I'm pretty sure I got it from his site.

Patrick Schwemmer
pschwemm@hotmail.com

TITLE: PEG LEG  By Leo Kottke
ALBUM: Peculiaroso
Honorary Transcriber: Bruce Head

Tuning EADGBE (standard pitch)
6 or 12 String

Notes: 4/4 time

TAB NOTATION
p  = RH thumb
i  = RH index
m  = RH middle
a  = RH ring


"PEG LEG"


    |--------------------------------|--------------------------------|
    |--------------------------------|--------------------------------|
1   |*-------------------------------|--------------------------------|
    |*--------2-----------4----------|-2-----------1-----------2-/-4--|
    |---------2-----------4----------|-2-----------2------------------|
    |-0---4-------0---5-------0---4--|-----0---2-------2---2----------|
      1   &   2   &   3   &   4   &    1   &   2   &   3   &   4   &
      p   i   a
              m



    |--------------------------------|--------------------------------|
    |--------------------------------|--------------------------------|
3   |--------------------------------|--------------------------------|
    |---------2-----------4----------|-2-----------1------------------|
    |---------2-----------4----------|-2-----------2-----------2-/-4--|
    |-0---4-------0---5-------0---4--|-----0---2-------2---2----------|
      1   &   2   &   3   &   4   &    1   &   2   &   3   &   4   &





    |--------------------------------|--------------------------------|
    |--------------------------------|--------------------------------|
5   |--------------------------------|--------------------------------|
    |---------2-----------4----------|-2-----------1-----------2-/-4--|
    |---------2-----------4----------|-2-----------2------------------|
    |-0---4-------0---5-------0---4--|-----0---2-------2---2----------|
      1   &   2   &   3   &   4   &    1   &   2   &   3   &   4   &





    |--------------------------------|--------------------------------|
    |--------------------------------|--------------------------------|
7   |--------------------------------|--------------------------------|
    |---------2-----------4----------|-2-----------1------------------|
    |---------2-----------4----------|-2-----------2-----------2-/-5--|
    |-0---4-------0---5-------0---4--|-----0---2-------2---2----------|
      1   &   2   &   3   &   4   &    1   &   2   &   3   &   4   &




      IV------|       V---|       IV---|       II--------------|
    |--------------------------------|--------------------------------|
    |--------------------------------|--------------------------------|
9   |---------4-----------5----------|-4-----------2-----------2-/-4--|
    |---------4-----------5----------|-4-----------2-----------2-/-4--|
    |-----5-------0---------------5--|-----0---------------4----------|
    |-4----------[0]--5-------0------|---------2-------2--------------|
      1   &   2   &   3   &   4   &    1   &   2   &   3   &   4   &
      p   i   a   i   p   a   p   i    a   i   p   a   p   i   a
              m           m            m           m           m


      IV------|       V---|       IV---|       II--------------|
    |--------------------------------|--------------------------------|
    |--------------------------------|--------------------------------|
11  |---------4-----------5----------|-4-----------2------------------|
    |---------4-----------5----------|-4-----------2-----------4-\-2--|
    |-----5-------0---------------5--|-----0---------------4----------|
    |-4----------[0]--5-------0------|---------2-------2--------------|






    |--------------------------------|--------------------------------|
    |--------------------------------|--------------------------------|
13  |--------------------------------|--------------------------------|
    |---------2-----------4----------|-2-----------1-----------2-/-4--|
    |---------2-----------4----------|-2-----------2------------------|
    |-0---4-------0---5-------0---4--|-----0---2-------2---2----------|
      1   &   2   &   3   &   4   &    1   &   2   &   3   &   4   &




                              .                        .
    |--------------------------------|--------------------------------|
    |--------------------------------|--------------------------------|
15  |--------------------------------|--------------------------------|
    |-------------------------2---4/5|\4---2-----------2--------------|
    |-------------2---4---2----------|---------4---2------(0)---------|
    |-0---3--h4---------------0------|-----------------0---0---2---4--|
      1   &   2   &   3   &   4   &    1   &   2   &   3   &   4   &
                                               p   i   m   i   p   p
                                                       p


     (B)              (G#m)  (A)          (E)
    |--------------------------------|--------------------------------|
    |---------4-----------4----------|-2-------------------0----------|
17  |---------4-----------4----------|-2------h1---1------------------|
    |-----4-------0---------------2--|-----0--h2---2-----------2---0--|
    |-2-----------------------0------|--------h2----------------------|
    |-----------------4--------------|---------0-------0--------------|
      1   &   2   &   3   &   4   &    1   &   2   &   3   &   4   &
                                                               p   i



     (B)              (G#m)  (E)              (A)
    |--------------------------------|--------------------------------|
    |---------4-----------4----------|-----0-----------2--------------|
19  |---------4-----------4----------|-1---1-----------2--------------|
    |-----4-------0------------------|-2-----------2-----------2---0--|
    |-2---------------------------2--|---------0----------------------|
    |-----------------4-------0------|--------------------------------|
      1   &   2   &   3   &   4   &    1   &   2   &   3   &   4   &




     (B)              (G#m)  (A)          (E)
    |--------------------------------|--------------------------------|
    |---------4-----------4----------|-2-------------------0----------|
21  |---------4-----------4----------|-2------h1---1------------------|
    |-----4-------0---------------2--|-----0--h2---2-----------2---0--|
    |-2-----------------------0------|--------h2----------------------|
    |-----------------4--------------|---------0-------0--------------|
      1   &   2   &   3   &   4   &    1   &   2   &   3   &   4   &




     (B)              (G#m)  (E)              (A)
    |--------------------------------|--------------------------------|
    |---------4-----------4----------|-----0-----------2--------------|
23  |---------4-----------4----------|-1---------------2--------------|
    |-----4-------0------------------|-2-----------2-----------2---0--|
    |-2---------------------------2--|---------0----------------------|
    |-----------------4-------0------|--------------------------------|
      1   &   2   &   3   &   4   &    1   &   2   &   3   &   4   &



     (C#m)IV           IX         IV--(G#m)--------------------|
    |---------------------9----------|--------------------------------|
    |---------5-----------9----------|---------------------4----------|
25  |---------6-----------9----------|-------------4------------------|
    |-----6-----------------------6--|-------------6---------------0--|
    |-4-----------4-/---------0---6--|-----5---6---------------6-\----|
    |-----------------9--------------|-4---------------4--------------|
      1   &   2   &   3   &   4   &    1   &   2   &   3   &   4   &
                              p   m    p   i   p   m
                                  i                i

                                                               strum
     (A)      .        (Aadd9)        (E)         (F#)        (dn)(up)
    |--------------------------------|-----------------2--------------|
    |---------2-----------0----------|-0---0-----------2-------2---2--|
27  |---------2-----------2----------|-1---1-----------3-------3---3--|
    |-----2-------2---------------2--|-------------------------4---4--|
    |-0-----------------------0------|-------------------------4---4--|
    |-----------------0--------------|-0-------0---2-----------2---2--|
      1   &   2   &   3   &   4   &    1   &   2   &   3   &   4   &



      strum     strum
(F#)(dn)(up)    (dn)                          .
    |-------------2------------------|--------------------------------|
    |-2---2-------2------------------|--------------------------------|
29  |-3---3-------3------------------|--------------------------------|
    |-4---4-------4------------------|---------2---4/5\4---2----------|
    |-4-----------4---------------2--|-4---2-------------------4---2--|
    |-2-----------2---0---3--h4------|---------0----------------------|
      1   &   2   &   3   &   4   &    1   &   2   &   3   &   4   &




      .                       .                       .
    |--------------------------------|--------------------------------|
    |--------------------------------|--------------------------------|
31  |--------------------------------|--------------------------------|
    |-2---4/5\4---2-----------2---4/5|\4---2-----------2--------------|
    |-----------------4---2----------|---------4---2-------0----------|
    |-0-----------------------0------|-----------------0-------2---4--|
      1   &   2   &   3   &   4   &    1   &   2   &   3   &   4   &
                                               p   i   m   i   p   p
                                                       p


       (A)s          (E)         (A)             (D)
    |--------------------------------|------------14-----------0------|
    |---------14----------0----------|------------15----------15-\-14-|
33  |---------14---------13----------|14---0--------------14----------|
    |----7/14------------14----------|14-------0-------0--------------|
    |-0-----------0----------14---0--|--------------------------------|
    |-----------------0--------------|--------------------------------|
      1   &   2   &   3   &   4   &    1   &   2   &   3   &   4   &
                              p   i



     (A)             (E)         (A)              (E)
    |--------------------------------|--------------------------------|
    |-------/-14----------0----------|-------------1------------------|
35  |-------/-14---------13----------|14-\---------2------------------|
    |-----0--------------14----------|14-\-----0-------------------0--|
    |-0-----------0----------14---0--|--------------------------------|
    |-----------------0--------------|-----------------0---2---4------|
      1   &   2   &   3   &   4   &    1   &   2   &   3   &   4   &
      p   i   a   i
              m


       (A)           (E)         (A)             (D)
    |--------------------------------|------------14-----------0------|
    |---------14----------0----------|------------15----------15-\-14-|
37  |---------14---------13----------|14---0--------------14----------|
    |----7/14------------14----------|14-------0-------0--------------|
    |-0-----------0----------14---0--|--------------------------------|
    |-----------------0--------------|--------------------------------|
      1   &   2   &   3   &   4   &    1   &   2   &   3   &   4   &




     (A)             (E)         (A)              (E)
    |--------------------------------|--------------------------------|
    |-------/-14----------0----------|-------------1------------------|
39  |-------/-14---------13----------|14-\---------2------------------|
    |-----0--------------14----------|14-\-----0----------------------|
    |-0-----------0----------14---0--|--------------------------------|
    |-----------------0--------------|-----------------0---2---4------|
      1   &   2   &   3   &   4   &    1   &   2   &   3   &   4   &


      lighter

     (D)             (A)      .  (E)
    |---------2----------------------|-0-----------0------------------|
    |---------3-----------2----------|-0-----------0------------------|
41  |-----2-------0-------2-------1--|-----1-----------------------0--|
    |-0-----------------------0--(2)-|---------2----------------------|
    |-----------------0--------------|--------------------------------|
    |--------------------------------|-----------------0---2---4------|
      1   &   2   &   3   &   4   &    1   &   2   &   3   &   4   &




     (D)             (E)              (A)
    |---------2-----------0----------|--------------------------------|
    |---------3-----------0----------|-2-----------2-/-4--------------|
43  |-----2-------0--(1)-------------|-2-------2-----/-4---2----------|
    |-0---------------2-------2---0--|-------------------------4---2--|
    |--------------------------------|-0------------------------------|
    |--------------------------------|--------------------------------|
      1   &   2   &   3   &   4   &    1   &   2   &   3   &   4   &




     (D)             (A)      .  (E)
    |---------2----------------------|-0-----------0------------------|
    |---------3-----------2----------|-0-----------0------------------|
45  |-----2-------0-------2-------1--|-----1-----------------------0--|
    |-0-----------------------0--(2)-|---------2----------------------|
    |-----------------0--------------|--------------------------------|
    |--------------------------------|-----------------0---2---4------|
      1   &   2   &   3   &   4   &    1   &   2   &   3   &   4   &



                                     |-1st ending---------------------|
                                     |  strum                         |
     (D)             (E)             |(A)(dn)                         |
    |---------2-----------0----------|-5------------------------------|
    |---------3-----------0----------|-2------------------------------|
47  |-----2-------0-------1----------|-2-----------------------------*|
    |-0-----------------------2---0--|-2-----------------------------*|
    |--------------------------------|-0---------------4---2----------|
    |-----------------0--------------|-------------------------4---2--|
      1   &   2   &   3   &   4   &    1   &   2   &   3   &   4   &

    * Note.  Repeat measures 1-16 and 33-47 with the following ending.
      Omit measures 17-32 on the repeat.


    |-2nd ending---------------------|
    |strum                           |
    |(dn)                            |
    |-5-------------------------\----|
    |-2-------------------------\----|
49  |-2-------------------------\----|
    |-2-------------------------\----|
    |-0-------------------------\----|
    |--------------------------------|
      1   &   2   &   3   &   4   &

    Play measures 17-27 then proceed as follows...

    (listen closely to the song to get a feel for the timing from this
    point on.)

    * Note.  First measure in 2/4 timing, second measure in 4/4 timing.

                                              strum
     (E)          II--(F#)--------------------(dn)-|
    |----------------|-------------------------2------|
    |-0---0----------|---------------------2---2------|
50  |-1---1----------|---------3---------------3------|
    |----------------|-4-------4---------------4------|
    |----------------|-4-----------------------4------|
    |-0-------0---2--|-------------------------2------|
      1   &   2   &    1   &   2   &   3   &   4   &


    * Note.  First measure in 4/4 timing, then switch to 3/4 timing.

                             strum
     (E)                     (dn)     (A)           (G)
    |-------------------------0------|------------------------|
    |---------------------0---0------|---------2-----------0--|
52  |-------------1-----------1------|---------2-----------0--|
    |---------2---2------------------|-----2------------------|
    |---------2----------------------|-0-----------0----------|
    |-0---0--------------------------|-----------------3^-----|
      1   &   2   &   3   &   4   &    1   &   2   &   3   &




     (A)            (G)
    |------------------------|------------------------|
    |---------2-----------0--|------------------------|
54  |---------2-----------0--|-------------2---0---2--|
    |-----2------------------|---------2--------------|
    |-0-----------0----------|-0----------------------|
    |-----------------3^-----|------------------------|
      1   &   2   &   3   &    1   &   2   &   3   &



    Back to 4/4 timing, then again switch to 3/4 timing.

    |--------------------------------|------------------------|
    |--------------------------------|------------------------|
56  |-1---0-----------0--------------|--------------------(0)-|
    |---------2---1-------0----------|-0----------------------|
    |-------------------------3---2--|-----0------------------|
    |--------------------------------|---------3---2---0------|
      1   &   2   &   3   &   4   &    1   &   2   &   3   &




     (D)             (C)      (A)            (G)
    |---------2-----------0--|------------------------|
    |---------3-----------1--|---------2-----------0--|
58  |-----2-------0----------|---------2-----------0--|
    |-0----------------------|-----2------------------|
    |-----------------3------|-0-----------0----------|
    |------------------------|-----------------3^-----|
      1   &   2   &   3   &    1   &   2   &   3   &


    Switch to 2/4 timing, then back to 3/4 timing again.

             strum
     (E)     (dn)     (C)             (Bflat)
    |---------0------|---------0--------------|
    |---------0------|---------1-----------3--|
60  |---------1------|-----0---------------3--|
    |-----2----------|-------------0----------|
    |----------------|-3---------------1------|
    |-0--------------|------------------------|
      1   &   2   &    1   &   2   &   3   &


       Measure 63 is in 2/4 timing

                                      strum
     (Gsus4)        (Bflat/F) (E7)    (dn)
    |------------------------|---------0------|
    |---------1--------------|---------0------|
62  |---------0-----------3--|---------1------|
    |-----0---------------3--|-----0---0------|
    |-------------0----------|---------2------|
    |-3---------------1------|-0-------0------|
      1   &   2   &   3   &    1   &   2   &

    Back to 3/4 timing in measures 64-65.

     (A)            (G)       (A)            (G)
    |------------------------|------------------------|
    |---------2-----------0--|---------2-----------0--|
64  |*--------2-----------0--|---------2-----------0--|
    |*----2------------------|-----2------------------|
    |-0-----------0----------|-0-----------0----------|
    |-----------------3^-----|-----------------3^-----|
      1   &   2   &   3   &    1   &   2   &   3   &

     Measure 66 is in 2/4 time

     (A)
    |----------------|
    |-----2----------|
66  |-----2---------*|
    |---------------*|
    |-0--------------|
    |---------0------|
      1   &   2   &

    Repeat measures 64-66


    Back to 3/4 timing in measures 67-68

     (D)             (C)      (A)            (G)
    |---------2-----------0--|------------------------|
    |---------3-----------1--|---------2-----------0--|
67  |-----2-------0----------|---------2-----------0--|
    |-0----------------------|-----2------------------|
    |-----------------3------|-0-----------0----------|
    |------------------------|-----------------3^-----|
      1   &   2   &   3   &    1   &   2   &   3   &

    Measure 69 is in 2/4 timing.

            strum
     (E)     (dn)
    |---------0------|
    |---------0------|
69  |---------1------|
    |-----2----------|
    |----------------|
    |-0--------------|
      1   &   2   &



    Back to 3/4 timing in measures 70-71

     (C)             (Bflat)  (Gsus4)        (Bflat/F)
    |---------0--------------|------------------------|
    |---------1-----------3--|---------1--------------|
70  |-----0---------------3--|---------0-----------3--|
    |-------------0----------|-----0---------------3--|
    |-3---------------1------|-------------0----------|
    |------------------------|-3---------------1------|
      1   &   2   &   3   &    1   &   2   &   3   &


    Measure 72 is in 2/4 timing.

            strum
     (E7)    (dn)
    |---------0------|
    |---------0------|
72  |---------1------|
    |-----0---0------|
    |---------2------|
    |-0-------0------|
      1   &   2   &


   Play measures 33-48, then fade out repeating measures 1-8.

end.

     
Добавлено: 16.08.2013
Другие материалы по этой песне:
  • Аккорды и текст

Страница создана 14.08.2013
http://primanota.ru/leo-kottke/peg-leg-chords.htm
Привет, Гость.
Предлагаем пройти революционный курс по гитаре.
Подарок от PrimaNota.Ru, забирай!