PrimaNota.ru - самый крупный в мире бесплатный архив песенных текстов, аккордов, табулатур и нот


Leo Kottke - Ice Miner - таба, видео

Регистрация Запомнить меня
Войти через:  Facebook Google Twitter Vk Yandex Mail.ru

Leo Kottke - Ice Miner - таба, видео

Печатать
Просмотров: 70
                             The Ice Miner
                             by Leo Kottke


The Ice Miner is an early Kottke tune from the classic Mudlark album. Though 
it does not have the sophistication of his current work in open tunings, it 
is a very musical tune with the kind of nice compositional structure that is 
part of what makes Leo a great composer of solo acoustic guitar music. This 
particular transcription is as accurate as I could make it to the 
recording—other ways of playing the various parts would be mostly a matter 
of personal style. Open-G, 3/4 time, played capo 2 by Kottke.

---------------------------------------------------------------------------

John Boston and I are engaged in a mutual project to add songs to the newly 
formed John Fahey directory in the acoustic part of the  archive. In 
addition, we are tabbing a few other things by other artists, including Leo 
Kottke. We will continue to post new Fahey tunes and songs by other artists 
as we get them together. We have several new Fahey tunes in preparation. We 
are only tabbing songs that have not been published officially, as far as we 
know.

We hope to spur some interest in Fahey's music, which has been the precursor 
of so much acoustic guitar work today. I believe that  promotes the work 
of the artists represented there and we will continue to post tab for the 
archive in anticipation of the day it re-opens or relocates.

                      Dave Cohen
                      dcohen@bhi.com
----------------------------------------------------------------------------


                            The Ice Miner

                            by Leo Kottke


Intro
----------------------------|-----------------------------------------
----------------------------|-----------------------------------------
----0--------0--------0-----|-----------------------------------------
-------0--------0--------0--|-----------------------------------------
-0--------0--------0--------|-----------------------------------------
----------------------------|-----------------------------------------


Section A

-----------------------0-----------|----------------------------------
-----------------------------0-----|----------------------------------
--------0-----------0-----------0--|----------------------------------
-----5-----0-----------------------|----------------------------------
5/7-----------0-----------0--------|----------------------------------
0----------------0-----------------|----------------------------------



-----------------------0-----------|----------------------------------
--------0-----------0--------0-----|----------------------------------
-----5-----0--------------------0--|----------------------------------
5--7----------0--------------------|----------------------------------
--------0-----------------0--------|----------------------------------
0----------------0-----------------|----------------------------------



-------2--0--------------0----------|---------------------------------
-1--3--------0--------0-------------|---------------------------------
---------------0--------------0-----|---------------------------------
-2-------------------------------0--|---------------------------------
(0)-------0-----------------0-------|---------------------------------
------------------0-----------------|---------------------------------



------5--7--5-----------0-----------|---------------------------------
---5-----------7--------------7-----|---------------------------------
7--------------------5-----------5--|---------------------------------
0-----------------------------------|---------------------------------
---------0--------------------------|---------------------------------
------------------0--------0--------|---------------------------------



------7--10--9/12--------------------|--------------------------------
---7---------------------------------|--------------------------------
9-------(0)----------0---------0-----|--------------------------------
---------------(0)------0--------0---|--------------------------------
9--------0---------0--------0--------|--------------------------------
-------------------------------------|--------------------------------


Section B

-------5---------------0--|-----------------7--------------|----------
----5---------------0-----|--------------7-----8-----------|----------
-7--------2/4p0-----------|-----0-----9-----------0--------|----------
--------------------------|--------0-----------------0-----|----------
-0------------------------|--0--------9-------(0)----------|----------
----------(0)----0--------|-----------------------------0--|----------


Section C
9-\7-/9-------7/12\9(p)0---------0-----------|------------------------
-----------0------------------0--------------|------------------------
11\9/11-------7/12\9(p)0------------------0--|------------------------
---------------------------------------0-----|------------------------
--------0------------------0-----------------|------------------------
------------------------------------0--------|------------------------


Section D
-----------------------------------------------------------|----------
8--------\5----------/7---------/3--------/5-----5---------|----------
------0---------0-----------0----------0------------5\2----|----------
---9---------7-------/7--7----------4---------5-----5\2----|----------
0---------0-----------0----------0---------0--------0------|----------
---------------------------------------------------------2-|----------


                                 X
----------------------------------|-----------|-----------------------
----------------------------------|-----------|-----------------------
---2--------2--------2--------2---|--0--------|-----------------------
2--------2--------2--------2------|-----0-----|-----------------------
----------------------------------|--0--------|-----------------------
------2--------2--------2---------|--------0--|-----------------------


repeat D through X       Section E      triplet
----------------|--------|--------5--|---7-5-7-------------------|----
----------------|--------|---5/7-----|---------------------------|----
----------------|--------|-----------|------------0--------0-----|----
----------------|--------|-----------|---0-----------0--------0--|----
----------------|--0-----|---0-------|---------0--------0--------|----
----------------|-----0--|-----------|---------------------------|----


-7h9--7h9p7---------------------------------|-------------------------
(8)--(8)----8---7-----7---------------------|-------------------------
-------------------9--------0--------0------|-------------------------
-----------(0)-----------------0--------0---|-------------------------
-0--------------0--------0--------0---------|-------------------------
--------------------------------------------|-------------------------

bend to
virtual 8
-----------------------------0--|-------------------------------------
---7-----7--5-------------0-----|-------------------------------------
---------------7--5/9-----------|-------------------------------------
--------------------------------|-------------------------------------
---0-----------0-------0--------|-------------------------------------
--------------------------------|-------------------------------------



------0--------7-------------0-----------|----------------------------
---0--------7-------------0--------------|----------------------------
---------9------/4--4--------------0-----|----------------------------
--------------------------------------0--|----------------------------
---------9-------0--------------0--------|----------------------------
0----------------------0-----------------|----------------------------


                                     repeat E     repeat B
------5---------------0-----------|------------|------------|---------
---5---------------0--------------|------------|------------|---------
7--------2/4p0--------------0-----|------------|------------|---------
-------------------------------0--|------------|------------|---------
7------------------------0--------|------------|------------|---------
---------0------0-----------------|------------|------------|---------


repeat C   repeat D to X            repeat A     repeat B
----------|------------|-----------|------------|------------|--------
----------|------------|-----------|------------|------------|--------
----------|------------|-----0-----|------------|------------|--------
----------|------------|--------0--|------------|------------|--------
----------|------------|-----------|------------|------------|--------
----------|------------|--2--------|------------|------------|--------


strum toward high E
----------------|-----------------------------------------------------
----8-----------|-----------------------------------------------------
----0-----------|-----------------------------------------------------
----0-----------|-----------------------------------------------------
----0-----------|-----------------------------------------------------
----------------|-----------------------------------------------------


left hand fingering on D
----------------------------------------------------------------------
----8-I--------5-I------7-R------3-I------5-R-------------------------
---------------------------------------------------5-R----------------
----9-M--------7-R------7-M------4-M------5-M------5-M----------------
----------------------------------------------------------------------
----------------------------------------------------------------------
     
Добавлено: 19.11.2013
Другие материалы по этой песне:
  • Аккорды и текст

Страница создана 19.11.2013
http://primanota.ru/leo-kottke/ice-miner-chords.htm
Привет, Гость.
Предлагаем пройти революционный курс по гитаре.
Подарок от PrimaNota.Ru, забирай!