PrimaNota.ru - самый крупный в мире бесплатный архив песенных текстов, аккордов, табулатур и нот


Leo Kottke - Echoing Gilewitz - аккорды и текст, таба, видео

Регистрация Запомнить меня
Войти через:  Facebook Google Twitter Vk Yandex Mail.ru

Leo Kottke - Echoing Gilewitz - аккорды и текст, таба, видео

Печатать
Просмотров: 85
Echoing Gilewitz
Leo Kottke
		   Echoeing Gilewitz

     Written: Leo Kottke


     Transcribed: Charlie Weidhas

     Notes:

     This is a pretty simple tune with the only
     tricky part being maintaining the open 5th
     and 6th string drone pattern. (Of course, sounding
     like Leo is not simple!!)

     There is no muting of notes that I can
     make out. Let the strings ring out with sustain.

     Listen to the CD for timing as well as some slide
     nuance.

     Some assembly is required:

     Pass #1: A A A A B B C C D D E F

     Pass #2: A A A A B B C C D D E F

     Pass #3: A A A B B C C D D E F G G G G H

     Tuning: Open D

     Part A
     -------0-----0------------
     -----0---------0----------
     - 12>---------------------
     --------- 12>-------------
     --------------------------
     --------------------------

     Part B
     -------0----0--------0---0-------0---0-------0---0---
     -----0--------0----0-------0---0-------0---0-------0-
     - 12>-----------10-----7-----5-----1-----3-----0-----
     -------- 12>-----------------------------------------
     -----------------------------------------------------
     -----------------------------------------------------

     Part C
     -------0---0--------0---0-------0---0-------0---0----
     -----0-------0----0-------0---0-------0---0-------0--
     -----------------------------------------------------
     --12-----9-----11-----7-----5-----2-----4-----0------
     -----------------------------------------------------
     -----------------------------------------------------

     Part D
     -------0---0--------0---0-------0---0-------0---0----
     -----0-------0----0-------0---0-------0---0-------0--
     -----------------------------------------------------
     ---9-----5------7-----4-----5-----2-----4-----0------
     -----------------------------------------------------
     -----------------------------------------------------

     Part E
     -------0---0---------0----0-------0---0---
     -----0-------0-----0--------0---0-------0-
     --------------- 12>---------- 5>----------
     ---------------------- 12>--------- 5>----
     ---0--------------------------------------
     ---------0--------------------------------



     -------0----0-------0---0---
     -----0--------0---0-------0-
     - 12>---------- 5>----------
     -------- 12>--------- 5>----
     ----------------------------
     ----------------------------

     Part F
     -------0---0-------0---0---------0-----0---------0-----
     -----0-------0---0-------0-----0---------0-----0-------
     - 7>----------------------- 12>------------------------
     -------- 7>--- 7>------------------ 12>----------------
     -------------------- 7>-------------------- 12>--------
     -------------------------------------------------- 12>-

     Part G
     -------0---0-------0---0----
     -----0-------0---0-------0--
     ----------------------------
     ---5-----2-----4-----0------
     ----------------------------
     ----------------------------

     Part H
     -------0---0-------0---0----
     -----0-------0---0-------0--
     ----------------------------
     ---5-----2-----4------------
     ----------------------------
     ---------------------0------

     -------0---0-------0---0----
     -----0-------0---0-------0--
     ----------------------------
     ---5-----2-----4------------
     ---------------------0------
     ----------------------------

     -------0---0-------0---0-------0---0--------
     -----0-------0---0-------0---0-------0------
     ---------------------------1-----------0-------
     ---5-----2-----4-----0-----------2-------0-----
     -------------------------------------------0---
     ---------------------------------------------0-

     End     
Добавлено: 02.11.2013
Другие материалы по этой песне:

Страница создана 27.02.2012
http://primanota.ru/leo-kottke/echoing-gilewitz-chords.htm
Привет, Гость.
Предлагаем пройти революционный курс по гитаре.
Подарок от PrimaNota.Ru, забирай!