PrimaNota.ru - самый крупный в мире бесплатный архив песенных текстов, аккордов, табулатур и нот


Leo Kottke - Dead End - таба, видео

Регистрация Запомнить меня
Войти через:  Facebook Google Twitter Vk Yandex Mail.ru

Leo Kottke - Dead End - таба, видео

Печатать
Просмотров: 68
I realize that this isn't much (only the first section), but I hope it'll 
give somebody out there a start at transcribing this bombastic masterpiece.

"Dead End"
By Leo Kottke
>From Standing In My Shoes

Transcribed by Patrick Schwemmer
pschwemm@hotmail.com

Open G Tuning (DGDGBd)

slowly, swing 16ths

intro

|----------------------------------|----------------------------------|
|----------------------------------|----------------------------------|
|*---------------------------------|---------------------------------*|
|*----0-4---0---------0-----0------|-----0-4---0---------0-----0-----*|
|---2---------4-2---2---4/7---4-2--|---2---------4-2---2---4/7---4-2--|
|-0-------0-------0-------0--------|-0-------0-------0-------0--------|
  1 . + . 2 . + . 3 . + . 4 . + .    1 . + . 2 . + . 3 . + . 4 . + .



|----------------------------------|----------------------------------|
|-------0---------------0----------|----------------------------------|
|*----4-----0---------4-----0------|-----2-2---0-----------2---0------|
|*--0---------5\4---0---------5\4--|---0---------4-2-----0-------4\2--|
|-0-------0-------0-------0--------|-------------------6--------------|
|----------------------------------|-4-------4-------4-------4--------|
  1 . + . 2 . + . 3 . + . 4 . + .    1 . + . 2 . + . 3 . + . 4 . + .

/----------------------------------+
| 1.          Ss              Ss   |
|----------------------------------|
|----------------------------------|
|-------0---------------0---------*|
|-----0-----0-4\0-----0-----0-4\0-*|
|---4-----4---------4-----4---4\0--|
|-2---------------2----------------|
  1 . + . 2 . + . 3 . + . 4 . + .

/---------------------------------------------------------------------+
| 2.          Ss              Ss                                      |
|----------------------------------|^2--v2^2--v2^2v2^2X---------------|
|----------------------------------|^2--v2^2--v2^2v2^2X---------------|
|-------0---------------0----------|^2--v2^2--v2^2v2^2X---------------|
|-----0-----0-4\0-----0-----0-4\0--|^2--v2^2--v2^2v2^2X------12\\\\\\-|
|---4-----4---------4-----4---4\0--|^2--v2^2--v2^2v2^2X------12\\\\\\-|
|-2---------------2----------------|^2--v2^2--v2^2v2^2X------12\\\\\\-|
  1 . + . 2 . + . 3 . + . 4 . + .    1 . + . 2 . + . 3 . + . 4 . + .
                    middle/ring Fingernail Explosion ^       ^Palm Mute

     
Добавлено: 07.11.2013
Другие материалы по этой песне:
  • Аккорды и текст

Страница создана 07.11.2013
http://primanota.ru/leo-kottke/dead-end-chords.htm
Привет, Гость.
Предлагаем пройти революционный курс по гитаре.
Подарок от PrimaNota.Ru, забирай!