PrimaNota.ru - самый крупный в мире бесплатный архив песенных текстов, аккордов, табулатур и нот


Leo Brouwer - Estudios Sencillos Study No 8 - таба, видео

Регистрация Запомнить меня
Войти через:  Facebook Google Twitter Vk Yandex Mail.ru

Leo Brouwer - Estudios Sencillos Study No 8 - таба, видео

Печатать
Просмотров: 104
Study No 8 - Leo Brouwer (1939-)

This is the eighth study in Leo Brouwer's Estudios Sencillos
of which I believe there are 20.

MIDI at http://www1.tip.nl/~t249768/sudamerica.htm

Paul R. Estrada - November 2002
estrada@cosmic.arc.nasa.gov

Study no. 8 (Estudios Sencillos)
by Leo Brouwer

Timing is (3/4) 


    1  &  2  &  3  &     1  &  2  &  3  &     1  &  2  &  3  &

E|--------------------|--------------------|--0-----------------|
B|--------5-----5-----|--------3-----------|--------3-----------|
G|--2-----------------|--------------5-----|--------------------|
D|--------------------|--------4-----4-----|--------2-----0-----|
A|--------------------|--2-----------------|--------------------|
E|--------------------|--------------------|--------------------|


    1  &  2  &  3  &     1  &  2  &  3  &     1  &  2  &  3  &

E|--------------------|--------------------|--0-----------------|
B|--------5-----5-----|--------3-----------|--------------------|
G|--2-----------------|--------------5-----|--------------------|
D|--4-----2-----------|--------4-----4-----|--------2-----0-----|
A|--------------------|--2-----------------|--------------------|
E|--------------------|--------------------|--------------------|


    1  &  2  &  3  &     1  &  2  &  3  &     1  &  2  &  3  &

E|--------------------|--------------------|--------------------|
B|-----3--1--0-----1--|--------------------|--------------------|
G|--------------------|--2-----------2-----|--0-----3-----0-----|
D|--3-----------------|-----2--0--------0--|--2-----0-----2-----|
A|--------------------|-----------3--------|--------------------|
E|--------------------|--------------------|--------0-----------|

    PIU MOSSO....

    1  &  2  &  3  &     1  &  2  &  3  &     1  &  2  &  3  &

E|--------------------|--0-----------------|--------------------|
B|------0-----0-----0-|------0-----0-----0-|------0-----0-----0-|
G|*---3-----3-----3---|----3-----3-----3---|----3-----3-----3---|
D|*-------------------|--------------------|--------------------|
A|--------2-----2-----|--------0-----------|--2-----0-----0-----|
E|--0-----------------|--------------3-----|--------------------|
    triplets


    1  &  2  &  3  &     1  &  2  &  3  &     1  &  2  &  3  &

E|--3-----2-----2-----|--------------------|--0-----------------|
B|------0-----0-----0-|------0-----0-----0-|------0-----0-----0-|
G|----3-----3-----3---|----3-----3-----3---|----3-----3-----3---|
D|--------------------|--------------------|--------------------|
A|--------------------|--------2-----2-----|--------0-----------|
E|--------------------|--0-----------------|--------------3-----|


    1  &  2  &  3  &     1  &  2  &  3  &     1  &  2  &  3  &

E|--------------------|--2-----3-----0-----|--------------3-----|
B|------0-----0-----0-|------0-----0-----0-|------0-----0-----0-|
G|----3-----3-----3---|----3-----3-----3--*|----3-----3-----3---|
D|--------------------|-------------------*|--------------------|
A|--------------------|--------------------|--------------------|
E|--2-----3-----0-----|--------------------|--3-----0-----------|
|
         notice repeat


    1  &  2  &  3  &     1  &  2  &  3  &     1  &  2  &  3  &

E|--0-----------------|--------------------|--------------------|
B|------0-----0-----0-|------0-----0-----0-|------0-----0-----0-|
G|----3-----3-----3---|----3-----3-----3---|----3-----3-----3---|
D|--------------------|--2-----2-----2-----|--2-----2-----2-----|
A|--------------------|--------------------|--------------------|
E|--------3-----0-----|--------------------|--------------------|


    1  &  2  &  3  &     1  &  2  &  3  &     1  &  2  &  3  &

E|--------------------|--------------------|--0-----------------|
B|--------5-----5-----|--------3-----------|--------3-----------|
G|--2-----------------|--------------5-----|--------------------|
D|--------------------|--------4-----4-----|--------2-----0-----|
A|--------------------|--2-----------------|--------------------|
E|--------------------|--------------------|--------------------|


    1  &  2  &  3  &     1  &  2  &  3  &     1  &  2  &  3  &

E|--------------------|--------------------|--0-----------------|
B|--------5-----5-----|--------3-----------|--------------------|
G|--2-----------------|--------------5-----|--------------------|
D|--4-----2-----------|--------4-----4-----|--------2-----0-----|
A|--------------------|--2-----------------|--------------------|
E|--------------------|--------------------|--------------------|


    1  &  2  &  3  &     1  &  2  &  3  &     1  &  2  &  3  &

E|--------------------|--------------------|--------------------|
B|-----3--1--0-----1--|--------------------|--------------------|
G|--------------------|--2-----------2-----|--0-----3-----0-----|
D|--3-----------------|-----2--0--------0--|--2-----0-----2-----|
A|--------------------|-----------3--------|--------------------|
E|--------------------|--------------------|--------0-----------|


    1  &  2  &  3  &     1  &  2  &  3  &     1  &  2  &  3  &

E|--------------------|--------------------|--------------------|
B|--------------------|--------------------|--------------------|
G|--------3-----0-----|--------5-----------|--------------------|
D|--------0-----2-----|--------2-----------|--------------------|
A|--------------------|--0-----------------|--------------------|
E|--0-----------------|--------------------|--------------------|



 * = These are 16ths notes.
 mf,f,ff,mp,p,pp = standard notation (forcefully or softly etc.)
Добавлено: 16.03.2012
Другие материалы по этой песне:

Страница создана 16.03.2012
http://primanota.ru/leo-brouwer/estudios-sencillos-study-no-8-chords.htm
Привет, Гость.
Предлагаем пройти революционный курс по гитаре.
Подарок от PrimaNota.Ru, забирай!