PrimaNota.ru - самый крупный в мире бесплатный архив песенных текстов, аккордов, табулатур и нот


Leo Brouwer - Estudios Sencillos - Study No 12 - таба, видео

Регистрация Запомнить меня
Войти через:  Facebook Google Twitter Vk Yandex Mail.ru

Leo Brouwer - Estudios Sencillos - Study No 12 - таба, видео

Печатать
Просмотров: 127
This is the twelfth study in Leo Brouwer's Estudios Sencillos
of which there are 20.

Paul R. Estrada
estrada@cosmic.arc.nasa.gov

Study no. 12 (Estudios Sencillos)
by Leo Brouwer - Editions Max Eschig, 1983

Timing is (3/4) 
Tempo is TRANQUILLO - MODERATO
Tab explanation below

    1  &  2  &  3  &     1  &  2  &  3  &     1  &  2  &  3  &
              
E|--------------------|--------3-----3-----|--------------------|
B|--------1-----0-----|-----------1-----0--|--------3-----2-----|
G|-----------0-----1--|--------------------|-----------0-----0--|
D|--------2-----3-----|--------2-----3-----|--------1-----2-----|
A|--0-----------------|--0-----------------|--0-----------------|
E|--------------------|--------------------|--------------------|

    mp (sempre legato)

    1  &  2  &  3  &     1  &  2  &  3  &     1  &  2  &  3  &
              
E|--------------------|--------------------|--------------------|
B|--------1-----0-----|--------1-----2-----|--3-----4-----5-----|
G|-----------0-----0--|-----------0-----0--|-----0-----0-----0--|
D|--------3-----4-----|--------2-----3-----|--4-----------3-----|
A|--0-----------------|--0-----------------|--------------------|
E|--------------------|--------------------|--------------------|

                         p (cresc.)

    1  &  2  &  3  &     1  &  2  &  3  &     1  &  2  &  3  &
              
E|--------------------|--------------------|--------------------|
B|--------5-----4-----|--------3-----2-----|--------1-----1-----|
G|-----------0-----0--|-----------0-----0--|-----------0-----0--|
D|--0-----------4-----|--------------------|--------------0-----|
A|--------------------|--3-----------2-----|--1-----------------|
E|--------------------|--------------------|--------------------|

    f                                         dim.

    1  &  2  &  3  &     1  &  2  &  3  &     1  &  2  &  3  &
              
E|--------------------|--------------------|--------3-----3-----|
B|--------1-----1-----|--------1-----0-----|-----------1-----0--|
G|-----------0-----0--|-----------0-----1--|--------------------|
D|--------------0-----|--------2-----3-----|--------2-----3-----|
A|--------------------|--0-----------------|--3-----------------|
E|--1-----------------|--------------------|--------------------|

                         p

    1  &  2  &  3  &     1  &  2  &  3  &     1  &  2  &  3  &
              
E|--------0-----------|--------------------|--------------------|
B|-----------0--------|--3-----1-----------|--------------------|
G|--------------0-----|-----2-----0--------|--------------------|
D|-----------------0--|--------------0-----|--2-----------2-----|
A|--------------------|-----------------0--|--------------------|
E|--0-----------------|--------------------|--------0-----------|

    1  &  2  &  3  &     1  &  2  &  3  &     1  &  2  &  3  &
              
E|--------3-----3-----|--------3-----3-----|--------------------|
B|--------1-----0-----|--------1-----0-----|--------------------|
G|--------0-----1-----|--------0-----1-----|--------2-----2-----|
D|--------2-----3-----|--------2-----3-----|--------5-----3-----|
A|--------------------|--------------------|--0-----------------|
E|--0-----------------|--0-----------------|--------------------|

    mf                   mp                   p

    1  &  2  &  3  &     1  &  2  &  3  &     1  &  2  &  3  &
              
E|--------------------|
B|--------------------|
G|--------5-----5-----|
D|--------4-----2-----|
A|--0-----------------|
E|--------------------|

               ppp

 mf,f,ff,mp,p,pp = standard notation (forcefully or softly etc.)
Добавлено: 30.03.2012
Другие материалы по этой песне:
  • Аккорды и текст

Страница создана 30.03.2012
http://primanota.ru/leo-brouwer/estudios-sencillos-study-no-12-chords.htm
Привет, Гость.
Предлагаем пройти революционный курс по гитаре.
Подарок от PrimaNota.Ru, забирай!