PrimaNota.ru - самый крупный в мире бесплатный архив песенных текстов, аккордов, табулатур и нот


Leny Labbe - Walking - бас-таба, видео

Регистрация Запомнить меня
Войти через:  Facebook Google Twitter Vk Yandex Mail.ru

Leny Labbe - Walking - бас-таба, видео

Печатать
Просмотров: 97
Уроки эстрадного вокала в Санкт-Петербурге
-------------------------------------------------------------------------------
                             Walking - Leny Labbe
-------------------------------------------------------------------------------
Tabbed by: CBX2a 
E-mail: chauartiartichau@gmail.com

Tuning: EADG 

1st couplet :
G|---------------------------------------------------------------------------|
D|---------------------------------------------------------------------------|
A|---------2--4--2-----------------------------------------------------------|
E|--0---4-----------4---0----------------------------------------------------|  x3

REFRAIN :
G|---------------------------------------------------------------------------|
D|---------------------------------------------------------------------------|
A|---------------------------------------------------------------------------|
E|-2---------4--------2--------0---------------------------------------------|  x4

2nd couplet :
G|---------------------------------------------------------------------------|
D|---------------------------------------------------------------------------|
A|---------2--4--2-----------------------------------------------------------|
E|--0---4-----------4---0----------------------------------------------------|  x3

Guitar SOLO :
G|---------------------------------------------------------------------------|
D|---------------------------------------------------------------------------|
A|--2--2--1--1--0-----0------------------------------------------------------|
E|---------------------------------------------------------------------------|  x2

ENDING :
G|-----------------------------------------------------------------------------|
D|---4p2-----------------------------------------------------------------------|
A|--------4p0------------------------------------------------------------------|
E|-------------4p2-------------------------------------------------------------|



| /  slide up
| \  slide down
| h  hammer-on
| p  pull-off
| ~  vibrato
| +  harmonic
| x  Mute note
===============================================================================
Добавлено: 27.12.2015
Другие материалы по этой песне:
  • Аккорды и текст

Страница создана 27.12.2015
http://primanota.ru/leny-labbe/walking-chords.htm
Привет, Гость.
Предлагаем пройти революционный курс по гитаре.
Подарок от PrimaNota.Ru, забирай!