PrimaNota.ru - самый крупный в мире бесплатный архив песенных текстов, аккордов, табулатур и нот


Leño - Sodoma Y Chabola - таба, видео

Регистрация Запомнить меня
Войти через:  Facebook Google Twitter Vk Yandex Mail.ru

Leño - Sodoma Y Chabola - таба, видео

Печатать
Просмотров: 172
Новый альбом группы 'Черный Кузнец' по культовому сериалу 'Сверхъестественное'!
Riff:1
|---------------------------------------------------------|
|---------------------------------------------------------|
|---------------------------------------------------------|
|------5^3---3-2-0-3-3-3/5-5------5^3---3-2-0-3-3-3-3/5-5-| 
|----------5-------1-1-1/3-3----------5-------1-1-1-1/3-3-|
|-3-3-------------------------3-3-------------------------|

Riff:2
|-------------------------------------------------------
|---7---7-----2-----2-------2---2--------)-(-----)-(----
|---7---7-----2-----2-------2---2-----2-4---4^2-4---4^2-
|---7---7-0^2-2-0^2-2-2^0-2-2-2-2-2^4-------------------
|-5---5-------------------------------------------------
|-------------------------------------------------------

---------|
--)-(----|
-4---4^2-|
---------|
---------|
---------|

Riff:3
|------------------------------------------------------
|---7---7-----2-----2-------2---2---3---------------3--
|---7---7-----2-----2-------2---2---3-----4---4^2-----4
|---7---7-0^2-2-0^2-2-2^0-2-2-2-2-3-3-4-4---4-----4----
|-5---5------------------------------------------------
|------------------------------------------------------
                    (----------------x3-------------------)
--------------------|-------------------------------------|
--------------------|--------------3----------------------|
-------4--4^2-------|----4---4^2-----4-------4---4^2------|
-2^4-4--4-----4-----|2^4---4-----4-----2^4-4---4-----4----|
----------------2-0-|---------------------------------2-0-|
--------------------|-------------------------------------|

Riff:1 x2
Riff:2 x2
Riff:1 x2
Riff:2
Riff:3
Riff:1 x2 (un tono más agudo)
Riff:1 x2

D A# C: x4


Riff:4
|------------------------------------------|
|------------------------------------------|
|------------------------------------------|
|-----7-5-4-5^4-5^4-------7-5--------------|
|-------------------7---------5^6^7-3^4^5--|
|-5-5-----------------5-5------------------|

Riff:4 x2
D A# C: x2
Riff:4 x2
F*(en traste 8) C D# F* CC D
Riff:4 x2
Riff:1 x2
Riff:2
Riff:3
B E* B E* F#*
F# F#

Ya me he cansado, lo demás lo dejo para quien quiera...

Creo que se entiende todo bastante bien, no está perfecta pero 
suena decentemente, si alguien tiene alguna duda o algo, que me 
lo comente a mi dirección... Tab dedicado a mi hermano Adri que 
no le mola tocar está canción conmigo... Un abrazo.
Добавлено: 05.09.2014
Другие материалы по этой песне:
  • Аккорды и текст

Страница создана 05.09.2014
http://primanota.ru/leno/sodoma-y-chabola-chords.htm
Привет, Гость.
Предлагаем пройти революционный курс по гитаре.
Подарок от PrimaNota.Ru, забирай!