PrimaNota.ru - самый крупный в мире бесплатный архив песенных текстов, аккордов, табулатур и нот


Lenny Kravitz - You Were in my Heart - текст песни, таба, видео

Регистрация Запомнить меня
Войти через:  Facebook Google Twitter Vk Yandex Mail.ru

Lenny Kravitz - You Were in my Heart - текст песни, таба, видео

Печатать
Просмотров: 133
Уроки эстрадного вокала в Санкт-Петербурге
You Were In My Heart - Lenny Kravitz (Lenny)
================================================
  Tabbed by Guitarnovice
(guitarnovice@hotmail.com)


Here's a song from Lenny's newest album.
There is very little guitarwork but the
solo is sort of sweet. It's all pretty
straightforward...




   Pre-chorus riff
          ½             ½             ½
||------------|-------------|-------------|----------||
||------------|-------------|-------------|----------||
||*-------)\--|---------)\--|---------)\--|-8-------*||
||*------8(8)-|-6------8(8)-|-9------8(8)-|-8-------*||
||------------|-6-----------|-9-----------|-6--------||
||------------|-4-----------|-7-----------|----------||



  Solo
|-11-13--11-13-13--13/14-------|-13-14--13-----------------|
|------------------------------|------------14-------------|
|------------------------------|----------------15---------|
|------------------------------|---------------------------|
|------------------------------|---------------------------|
|------------------------------|---------------------------|
  (f = bend full)
            f         f
|-----------)-----------------------|------------------------|
|---------14--14-11---)\------------|------------------------|
|-------------------13(13)p11-13p11-|-11---11---11---11---\--|
|-----------------------------------|-11---11---11---11---\--|
|-----------------------------------|------------------------|
|-----------------------------------|------------------------|

               f                         f
|--------16----)--------------|-21-19----)---------------|
|-16-19------21--21-----19----|--------21--21--19--------|
|-----------------------------|--------------------------|
|-----------------------------|--------------------------|
|-----------------------------|--------------------------|
|-----------------------------|--------------------------|
           f  f     f        f
           )  )     )\       )
|--------21-21----21(21)18-21----|---------|
|--------------------------------|---------|
|--------------------------------|---------|
|--------------------------------|---------|
|--------------------------------|---------|
|--------------------------------|---------|

Have fun!
/GN




_________________________________________________________________
     
Добавлено: 20.06.2013
Другие материалы по этой песне:
  • Аккорды и текст

Страница создана 02.04.2012
http://primanota.ru/lenny-kravitz/you-were-in-my-heart-chords.htm
Привет, Гость.
Предлагаем пройти революционный курс по гитаре.
Подарок от PrimaNota.Ru, забирай!