PrimaNota.ru - самый крупный в мире бесплатный архив песенных текстов, аккордов, табулатур и нот


Lenny Kravitz - Where Are We Running - таба, видео

Регистрация Запомнить меня
Войти через:  Facebook Google Twitter Vk Yandex Mail.ru

Lenny Kravitz - Where Are We Running - таба, видео

Печатать
Просмотров: 202
        Intro
 e| |-------------------------------------|
 B| |-------------------------------------|
 G| |-------------------------X-4-times---|   
 D| |-7-9-7--11-9-------------------------|
 A| |-5-5-5--7--7---9-9-11-9-9-9-11-9-----|
 E| |---------------7-7-7--7-7-7-7--7-----|

          Verse
 e| |-----------------------------x-2-times--------|
 B| |----------------------------------------------|
 G| |------------------7-7------------7---7--------|
 D| |--7/-9-9--7/-9-9--5-5-7-hold---7-5-7-5-7------|
 A| |--7/-9-9--7/-9-9--5-5-7-hold---7-5-7-5-7------|
 E| |--5/-7-7--5/-7-7------5--------5---5---5------|


         Pre-Chorus
 e| |-------------------------------------|
 B| |-------------------------------------|
 G| |-------------------------------------|
 D| |--5-5-5-5-5-5-5-5----7-7-7-7-7-7-7-7-|
 A| |--5-5-5-5-5-5-5-5----7-7-7-7-7-7-7-7-|               Intro
 E| |--3-3-3-3-3-3-3-3----5-5-5-5-5-5-5-5-|               Verse
                                                        Pre-Chorus
        Chorus                                            Chorus
 e| |-------------------------------------|               Verse
 B| |-------------------------------------|               Chorus 
 G| |-------------------------X-4-times---|'           ----Break----
 D| |-7-9-7--11-9-------------------------|              Pre-Chorus 
 A| |-5-5-5--7--7---9-9-11-9-9-9-11-9-----|        Guitar 1 plays solo
 E| |---------------7-7-7--7-7-7-7--7-----| Guitar 2 plays chorus 4 times
                                            Then both play chorus 8 times
                                         

        Solo
 e| |--------------------------------------------------------|
 B| |--------------------------------------------------------|
 G| |----7-9-9b11---11r9-7-9-7-9-7b9----------7-7b9-7-----7b-|
 D| |-/9-------------------------7---9----7-9---------9-9----|
 A| |--------------------------------------------------------|  
 E| |--------------------------------------------------------|

 e| |-------------------------------------------10-12--------|
 B| |-10-12-12b14---14r12-10-12-10-12-12br-12----------------|
 G| |--------------------------------------------------------|
 D| |--------------------------------------------------------|
 A| |--------------------------------------------------------|
 E| |--------------------------------------------------------|

 e| |-10p9---------------------------------------------------|
 B| |------12p10-9p7-----------------------------------------|
 G| |----------------9p7-------------------------------------|
 D| |--------------------11p9p7------9--9brvvvvvvv-----------|
 A| |---------------------------9p7--------------------------|
 E| |--------------------------------------------------------|
Добавлено: 24.05.2012
Другие материалы по этой песне:

Страница создана 01.03.2012
http://primanota.ru/lenny-kravitz/where-are-we-running-chords.htm
Привет, Гость.
Предлагаем пройти революционный курс по гитаре.
Подарок от PrimaNota.Ru, забирай!