PrimaNota.ru - самый крупный в мире бесплатный архив песенных текстов, аккордов, табулатур и нот


Lenny Kravitz - When The Morning Turns To Night - текст песни, таба, видео

Регистрация Запомнить меня
Войти через:  Facebook Google Twitter Vk Yandex Mail.ru

Lenny Kravitz - When The Morning Turns To Night - текст песни, таба, видео

Печатать
Просмотров: 124
KRAVITZ, Lenny - When the Morning Turns to Night
as transcribed by Alain Bernard (wingsab@hotmail.com)

A----0--2-0--|
E--3---------|

[C]Little girl with heroin so blue
[Am] You've got to find the future in you
[F]Your scepters and needles will put you away
[G]Forever and a [C]day

[C]Your future will haunt you before you get there
[Am]Imagine the planet with no air
[F]All mute no light no sun only night
[G]As far away as [C]neverland

[F]As the sky comes tumbling down [G]to the head
[F]And the valleys are all filed up with [Am]dirt
[F]As many people as there are [G]sands in the sea
[F]Will die the [G]morning [E]after

                   C
------------------|----------------------------------------------------------------|
------------------|----------------------------------------------------------------|
-7-b-9-r-7--------|-5--------------5----7b9--------7--7--7--------7-b-9-r-7--------|
-------------7----|------------7-----------------------------------------------7---|
------------------|----------------------------------------------------------------|
------------------|----------------------------------------------------------------|

   Am                                        F
-|----------------------------------------|-------------------------------------------|
-|----------8--h10--10-------b10--8--r8---|--6----------------------------------------|
-|--5-------------------------------------|-----------7-b-9-r-7--------7-----------5--|
-|----------------------------------------|-----------------------7----------5-7------|
-|----------------------------------------|-------------------------------------------|
-|----------------------------------------|-------------------------------------------|

                  G                                      C
---------------|---------------------------------------|--------------------------|
---------------|---------------------------------------|--------------------------|
--7-b-9-r-7----|---------------------------------------|--------------------------|
---------------|--7---------5-h7--5-------5---7---9----|-10-----------------------|
---------------|---------------------------------------|--------------------------|
---------------|---------------------------------------|--------------------------|

[C]So little girl with your heroin so blue
[Am]I guess our future is all up to you
Through the [F]battle sequence you must fight
'Til the [G]morning turns to night

[C]So imagine our world with no air
[Am]Just follow the son, he'll take you where
The [F] night and the seas are all full of light
'Til the [G]morning turns to night
'Til the [C]morning turns to night
Добавлено: 17.06.2012
Другие материалы по этой песне:
  • Аккорды и текст

Страница создана 17.06.2012
http://primanota.ru/lenny-kravitz/when-the-morning-turns-to-night-chords.htm
Привет, Гость.
Предлагаем пройти революционный курс по гитаре.
Подарок от PrimaNota.Ru, забирай!