PrimaNota.ru - самый крупный в мире бесплатный архив песенных текстов, аккордов, табулатур и нот


Lenny Kravitz - The Other Side - текст песни, бас-таба, видео

Регистрация Запомнить меня
Войти через:  Facebook Google Twitter Vk Yandex Mail.ru

Lenny Kravitz - The Other Side - текст песни, бас-таба, видео

Печатать
Просмотров: 127
The other side - Lenny Kravitz
tab by millepat, also available as a guitar pro5 version


G||--------------------|-------------------|--------------------|
D||--------------------|--0----------------|--------------------|
A||--1-----------------|-------------------|--1-----------------|
E||-----------3--------|-------------------|-----------3--------|


                      Where do I live...                               
-------------------|------------------------------|-------------------|
--0----------------|------------------------------|--0----------------|
-------------------|--1---------------------------|-------------------|
-------------------|---------------------3--------|-------------------|


  I am alone...                                     
-------------------------|-------------------|
-------------------------|--0----------------|
--1----------------------|-------------------|
----------------3--------|-------------------|


  Where am I going ...                   
----------------------------------------|
--1--------------------L---1---1----1-0-|
-------------------------1--------------|
----------------------------------------|


  what am I looking ...                    Where are my kids...               
----------------------------------------|--------------------------------|
----------------------------------------|--------------------------------|
--3---------------------L---3---3----3--|--1-----------------------------|
--------------------------3-------------|-----------------------3--------|


                      Calling my name...                                  
-------------------|------------------------------|----------------------|
--0----------------|------------------------------|--0------------L----0-|
-------------------|--1---------------------------|------------------3---|
-------------------|---------------------3--------|----------------------|


  I'm just a man on the run...                   
------------------------------------------------|
--1----------------------------L---1---1----1-0-|
---------------------------------1--------------|
------------------------------------------------|


  It's a fucking bore...                  
-----------------------------------------|
-----------------------------------------|
--3----------------------L---3---3-------|
---------------------------3-------------|


  So father can you...                   
----------------------------------------|
--1--------------------L---1---1----0-1-|
-------------------------1--------------|
----------------------------------------|


  So father can you...                    That I'm livin'...         
---------------------------------------|---------------------|
--2--------------------L---2---2----2--|--3------------------|
-------------------------2-------------|---------------------|
---------------------------------------|---------------------|


                      other side                      
-------------------|-------------------------------|
-------------------|-------------------------------|
-------------------|--1----------1-----------------|
--1----------------|--------------------3---3------|

  
----------------------------|-------------------------|
-------------------------0--|-------------------------|
--5---5----0----------------|--1---1---------------0--|
--------------10---10-------|-------------3---3-------|


                              I'm interna                      
---------------------------|---------------------------------|
---------------------------|---------------------------------|
--5---5-----------------3--|--1-----------1---------------1--|
-------------10---10-------|---------------------3---3-------|


  tionally known                          
---------------------------------------|
---------------------------------------|
--5--------------5----0-------------3--|
-------------------------10---10-------|


  with platinum and gold                       
---------------------------------------------|
---------------------------------------------|
--1----------------------1----------------0--|
------------------------------1--3---3-------|


  I've got millions sold                          
------------------------------------------------|
----------------------------------------------0-|
--5----------------------5----0-------------3---|
---------------------------------10---10--------|


           But after the party                  
----------------------------------------------|
------------------------------------------1-0-|
--6---6----1----------------------------------|
-------------------------------11---11--------|


  I'm left standing                        
----------------------------------------|
----------------------------------------|
--3-----------------3-------------------|
-------------------------3--8---8----3--|


  I would like to be                        
------------------------------------------|
------------------------------------------|
--------------------------------------3-4-|
--6------------------6----1--3---3--------|


  a simple man                          
-------------------------------------|
-------------------------------------|
--5------------5----0-------------5--|
-----------------------10---10-------|


  I'd buy me a farm and                        
---------------------------------------------|
-----------------------------------------3-1-|
--1---------------------1--------------------|
-----------------------------1--3---3--------|


  live off the land                         
-------------------------------------------|
-----------------------------------------0-|
--5-----------------5----0-------------3---|
----------------------------10---10--------|


  Could a wife and                          
------------------------------------------|
--------------------------------------1-0-|
--6----------------6----1-----------------|
---------------------------11---11--------|


  be better than being in band?                           
--------------------------------------------3-4-5-0----|
-------------------------------------------------------|
--3-----------------------------3----1-2------------3--|
-----------------------------------------8-------------|


  So father can you                          
-------------------------------------------|
-----------------------------------------1-|
--6-----------------6----1-------------5---|
----------------------------11---11--------|


  So father can you                          
-------------------------------------------|
-----------------------------------------2-|
--7-----------------7----2-------------6---|
----------------------------12---12--------|





  that I'm livin'                          'Til I meet you on that day                           
----------------------------------------|------------------------------|
----------------------------------------|------------------------------|
--8---------------8----3-------------3--|------------------------------|
--------------------------13---13-------|--1---------------------------|


                   on the other side                                 
-------------------------------------|----------------------------|
-------------------------------------|-------------------------0--|
--1---1------------------------------|--5---5----0----------------|
-------------3---3-------------------|--------------10---10-------|


      on the other side                                                  
-----------------------------------------|----------------------------|
-----------------------------------------|----------------------------|
--1---1----------------------------------|--5---5----0-------------3--|
---------------------------1--3---3------|--------------10---10-------|

  
--------------------------|----------------------------|
--------------------------|----------------------------|
--1---1----------------0--|--5---5----0-------------5--|
-----------1--3---3-------|--------------10---10-------|
 

--------------------------|-----------------------------|
--------------------------|---------------------------0-|
--1---1----------------0--|--5---5----0-------------3---|
-----------1--3---3-------|--------------10---10--------|

 
-----------------------------|---------------------------|
-------------------------1-0-|------------------------0--|
--6---6----1-----------------|--3---3----1-2------3------|
--------------11---11--------|---------------8-----------|


  So father can you                          
-------------------------------------------|
-----------------------------------------1-|
--6-----------------6----1-------------5---|
----------------------------11---11--------|


  So father can you                           
-------------------------------------------|
-----------------------------------------2-|
--7-----------------7----2-------------6---|
----------------------------12---12--------|


  that I'm livin'                          'Til I meet you on that day                          
----------------------------------------|------------------------------|
----------------------------------------|------------------------------|
--8---------------8-----3------------3--|------------------------------|
--------------------------13---13-------|--1---------------------------|

Reprendre une 2ème fois à partir de "'Til I meet you on that day " jusqu'a le fin

Добавлено: 01.04.2012
Другие материалы по этой песне:

Страница создана 01.04.2012
http://primanota.ru/lenny-kravitz/the-other-side-chords.htm
Привет, Гость.
Предлагаем пройти революционный курс по гитаре.
Подарок от PrimaNota.Ru, забирай!