PrimaNota.ru - самый крупный в мире бесплатный архив песенных текстов, аккордов, табулатур и нот


Lenny Kravitz - Is There Any Love in Your Heart - аккорды и текст, видео

Регистрация Запомнить меня
Войти через:  Facebook Google Twitter Vk Yandex Mail.ru

Lenny Kravitz - Is There Any Love in Your Heart - аккорды и текст, видео

Печатать
Просмотров: 90
Авторы музыки: Lenny Kravitz, Craig Ross
Авторы текста: Lenny Kravitz
Is There Any Love in Your Heart
Lenny Kravitz
Looking back at my previous effort i have decided to cut
change, add to the orginal.
So heres the new one!!!
In my opinion this is one of Lenny's best efforts.
To make it easier place your fingers on the orginal cord formation,
and use your 4th finger to Do the rest. Also Do not worry too much
about the muting and the bits in brackets.
Some of this may not be 100% correct, but as your playing - add lib!

Intro/verse:	[e----------------------------(5)(5)-x--x----
b--------8--8--8--8--x--7--x--5--5--x--x----
g--------6--6--6--6--x--6--x--6--6--x--x----
d--------7--7--7--7--x--7--x--7--7--x--x----
a---0-------------------0--------0--x--x----
e-------------------------------------------

e------------------------------------(5)(5)--x--x----
b----------8--8--8--8--x--7--x--7--x--5--5---x--x----
g----------6--6--6--6--x--6--x--6--x--6--6---x--x----
d----------7--7--7--7--x--7--x--7--x--7--7---x--x----
a--0--0-------------------0-----0--------0---x--x----
e----------------------------------------------------

e-------8--8--8--8--x-7----(5)(5)-x--x----
b-------8--8--8--8--x-7--x--5--5--x--x----
g-------6--6--6--6--x-6--x--6--6--x--x----
d-------7--7--7--7--x-7--x--7--7--x--x----
a-0--0----------------0--------0--x--x----
e-----------------------------------------

e---------------------------(5)(5)-x--x----
b-------8--8--8--8--x--7--x--5--5--x--x----
g-------6--6--6--6--x--6--x--6--6--x--x----
d-------7--7--7--7--x--7--x--7--7--x--x----
a--0--0----------------------------x--x----
e------------------------------------------

e--------8--8--8--8--x--7--x--(5)(5)x--x----
b--------8--8--8--8--x--7--x--5--5--x--x----
g--------6--6--6--6--x--6--x--6--6--x--x----
d--------7--7--7--7--x--7--x--7--7--x--x----
a--0--0-----------------0--------7--x--x----
e-------------------------------------------]

Verse 1.
D5                Csus2					Main bit
Tell me baby, why can't you see, that I'm feeling down
D5		  Csus2					Main bit
If you open your eyes you'd see, that I'm wearing a frown
C5 				E7#9
You'd think about yourself if you thought I was dead
Aw Yeah!

Verse 2.
D5		    Csus2				Main bit
Baby baby you walk around like you own this town
D5			Csus2                  Main bit
Your whole life is a fantasy, and I'm playing the clown
C5			       E7#9
You talk behind my back, and spend up all my bread

Chorus
Is there any love in your heart
ooh  Yeah
Is there any love in your heart
ooh

Before each chorus play:
[e-------12-------------------
b--12B------12rp10--12---10--
g----------------------------
d----------------------------]
Is there any......
[e---12B--r---10------------------
b----------------12B----10-------
g----------------------------10--
d--------------------------------]
Ooh  Yeah
[e--------12------------------
b--12B------12rp10--12---10--
g----------------------------
d----------------------------]
Is there any......
[e--12B---r--10--------------------
b---------------12B--12p10---12b--
d---------------------------------
g---------------------------------]

Cords behind this are:
A5 G5
D5 F5 A5
D5 F5
C5 G5 C5 G5

Verse 3.
D5			   Csus2
Babe you say I'm the only one - but your fucking all my friends
D5			   Csus2
Baby all that you care about is Gucci and Mercedes Benz
C5			     E7#9
Your just the kind that's up all the latest trends

 Then it's     X4
[e-----------------
b--------9-9-9-7--
g--------9-9-9-7--
d--------9-9-9-7--
a-----------------
e---0-------------]

Behind Solo it's first
[e------------------------------
b--------9-9-9-7--x-x-x-x-x-x--
g--------9-9-9-7--x-x-x-x-x-x--
d--------9-9-9-7--x-x-x-x-x-x--
a------------------------------
e---0--------------------------]
and then
[e---------------------------------
b--------9-9-9-7------------------
g--------9-9-9-7------------------
d--------9-9-9-7------------------
a------------------------5---7----
e---0--0----------6--7------------]
Добавлено: 21.12.2013
Другие материалы по этой песне:

Страница создана 13.03.2012
http://primanota.ru/lenny-kravitz/is-there-any-love-in-your-heart-chords.htm
Привет, Гость.
Предлагаем пройти революционный курс по гитаре.
Подарок от PrimaNota.Ru, забирай!