PrimaNota.ru - самый крупный в мире бесплатный архив песенных текстов, аккордов, табулатур и нот


Lenny Kravitz - God Save Us All - текст песни, бас-таба, видео

Регистрация Запомнить меня
Войти через:  Facebook Google Twitter Vk Yandex Mail.ru

Lenny Kravitz - God Save Us All - текст песни, бас-таба, видео

Печатать
Просмотров: 169
Авторы музыки: Lenny Kravitz
Авторы текста: Lenny Kravitz
Song: God save us all
Artist: Lenny Kravitz
Album: Lenny (2001)

Tabbed by Marcos Prieto (marcrow_ps@yahoo.es)

Notation legend:

 +.-.+.-. = is the drum's rhythm. '+' represent the drum bass; '-' is the snare.
        / = slide down.
        h = hammer on.
	p = pull off.
        " = notes higher than 9 (10, 11, 12...). 12 is 12, not 1 and 2.
                                                 " 

Verse 1:
   A                         F#m
   +.+-.++.+-.+ +.+-.++.+-.+ +.+-.++.+-.+ +.+-.++.+-.+ 
G||------------|------------|------------|------------||
D|.------------|------------|------------|------------.|
A|.------------|------------|------------|------------.|
E||5-55-55-55-5|5-55-55-5501|2-22-22-22-2|2-22-22-2234||x2

  A                         F#m
  +.+-.++.+-.+ +.+-.++.+-.+ +.+-.++.+-.+ +.+-.++.+-.+ 
G|------------|------------|------------|------------|
D|------------|------------|------------|------------|
A|------------|------------|------------|------------|
E|5-55-55-55-5|5-55-55-5501|2-22-22-22-2|2-22-22-22-2|

  F            Gm
  +.+-.++.+-.+ +.+-.+ 
G|------------|------|
D|------------|------|
A|------------|------|
E|1-11-11-11-1|3-33-3|

Chorus 1:
  A					F#m
  +.+-.++.+-.+ + . + - . + + . + - . +  +.+-.++.+-.+ + . + - . + + . + - . +  
G|------------|------------------11----|------------|------------------------|
D|------------|--------------1114"-1411|------------|------------2/4-4-0/2-2-|
A|------------|----------0-12"-"---"-"-|------------|------------------------|
E|5-55-55-55-5|5---5-5-----"-----------|2-22-22-22-2|2---2-2---2-------------|

  D	                    E            F    F#m
  +.+-.++.+-.+ +.+-.++.+-.+ +.+-.++.+-.+ +.+-.++.+-.+  
G|------------|---------4--|------------|------------|
D|------------|-------47-74|2-22-22-22-2|------------|
A|5-55-55-55-5|5-55-55-----|------------|------------|
E|------------|------------|------------|111111222234|

Verse 2:
  A                         F#m
  +.+-.++.+-.+ +.+-.++.+-.+ +.+-.++.+-.+ +.+-.++.+-.+ 
G|------------|------------|------------|------------|
D|------------|------------|------------|-----442-42-|
A|------------|------------|------------|--------4--4|
E|5-55-55-55-5|5-55-55-5501|2-22-22-22-2|2-22--------|

  A                         F#m
  +.+-.++.+-.+ +.+-.++.+-.+ +.+-.++.+-.+ +.+-.++.+-.+ 
G|------------|------------|------------|------------|
D|------------|------------|------------|------------|
A|------------|------------|------------|------------|
E|5-55-55-55-5|5-55-55-0-01|2-22-22-22-2|2-22-22-22-2|

  F            Gm (fast!)
  +.+-.++.+-.+ +   .   +  -   .   + 
G|------------|---------------------|
D|-----------3|3h5p3---3--3h5p3---3-|
A|------------|------5----------5---|
E|1-11-11-11--|---------------------|

Chorus 2:
  A			                F#m
  + . + - . + + . + - . +  +.+-.++.+-.+ +.+-.++.+-.+ +.+-.++.+-.+ 
G|------------------------|------------|------------|------------|
D|-----------------/7-/7--|------------|------------|------4--2--|
A|------------------------|------------|------------|------------|
E|5---5-5---5-5---5-------|--55-55-5501|2-22-22-22-2|2-22-2--2--2|

  D			                E            F     F#m
  + . + - . + + . + - . +  +.+-.++.+-.+ +.+-.++.+-.+ +.+-.++.+-.+ 
G|-----------------/7-/7--|------------|------------|------------|
D|------------------------|------------|------------|------------|
A|5---5-5---5-5---5-------|--55-55-55-5|7-77-77-77-7|------------|
E|------------------------|------------|------------|111111222234|

Solo (Verse 1).

Chorus 3:
  A			    F#m
  +.+-.++.+-.+ +.+-.++.+-.+ +.+-.++.+-.+ + . + - . + + . + - . + 
G|------------|------------|------------|------------------------|
D|------------|------------|------------|------------2/4-4-0/2-2-|
A|------------|------------|------------|------------------------|
E|5-55-55-55-5|5-55-55-54-4|2-22-22-22-2|2---2-2---2-------------|

  D			    E            F     F#m
  +.+-.++.+-.+ +.+-.++.+-.+ +.+-.++.+-.+ +.+-.++.+-.+ 
G|------------|------------|------------|------------|
D|------------|------------|------------|------------|
A|5-55-55-55-5|5-55-55-56-6|7-77-77-77-7|------------|
E|------------|------------|------------|111111222234|

  A			    F#m
  +.+-.++.+-.+ +.+-.++.+-.+ +.+-.++.+-.+ +.+-.++.+-.+  
G|------------|------------|------------|------------|
D|------------|------------|------------|------------|
A|------------|---4-45-5678|9-99-99-99-9|9-99-99-99-9|
E|5-55-55-55-5|5-5---------|------------|------------|

  A			    F#m          F     F#m
  +.+-.++.+-.+ +.+-.++.+-.+ +.+-.++.+-.+ +.+-.++.+-.+  
G|------------|------------|------------|------------|
D|------------|------------|------------|------------|
A|------------|------------|------------|------------|
E|5-55-55-55-5|5-55-55-54-4|2-22-22-22-2|111111222234|

  A			                F#m
  + . + - . + + . + - . +  +.+-.++.+-.+ +.+-.++.+-.+ +.+-.++.+-.+ 
G|------------------------|------------|------------|------------|
D|-----------------/7-/7--|------76476-|4-44-44-44-4|4-44-44-42-2|
A|------------------------|-----------7|------------|------------|
E|5---5-5---5-5---5-------|--55-5------|------------|------------|

  D			    E            F     F#m
  +.+-.++.+-.+ +.+-.++.+-.+ +.+-.++.+-.+ +.+-.++.+-.+ 
G|------------|------------|------------|------------|
D|------------|------------|------------|------------|
A|5-55-55-55-5|5-55-55-56-6|7-77-77-77-7|------------|
E|------------|------------|------------|111111222234|
  \__Fade Out_____________________________________>>>

  A                         
  +.+-.++.+-.+ +.+-.++.+-.+ 
G|------------|------------|
D|------------|------------|
A|------------|------------|
E|5-55-55-55-5|5-55-55-55-5|
  >>>_____________________/


Добавлено: 07.06.2012
Другие материалы по этой песне:

Страница создана 26.02.2012
http://primanota.ru/lenny-kravitz/god-save-us-all-chords.htm
Привет, Гость.
Предлагаем пройти революционный курс по гитаре.
Подарок от PrimaNota.Ru, забирай!