PrimaNota.ru - самый крупный в мире бесплатный архив песенных текстов, аккордов, табулатур и нот


Lenny Kravitz - Get Away - аккорды и текст, видео

Регистрация Запомнить меня
Войти через:  Facebook Google Twitter Vk Yandex Mail.ru

Lenny Kravitz - Get Away - аккорды и текст, видео

Печатать
Просмотров: 152
Get Away
Lenny Kravitz
GET AWAY (?) - call me an ignorant bastard if i'm wrong
~lenny kravitz

A NOTE TO THOSE WHO KNOW MUSIC:
Yeah, I know that these are all major chords, and they don't really make
sense (A and B should be minor) but though it bugged me on the radio, I
can't help but play those thirds. G live through it.

G|-6---6-6-6---8----9--9--9--9--9---x---|
D|-7---7-7-7---9---10-10-10-10-10---x---|
A|-7---7-7-7---9---10-10-10-10-10---x---|
E|-5---5-5-5---7----8--8--8--8--8---x---|

G|-4-4-4-4-4---x---11-11-11-11-11---x---|
D|-5-5-5-5-5---x---12-12-12-12-12---x---|
A|-5-5-5-5-5---x---12-12-12-12-12---x---|
E|-3-3-3-3-3---x---10-10-10-10-10---x---|

The verse is only bass (slap/pop in octaves with some funky pedal) ... and i
believe, ladies and gentlemen, that's all.
__________________________________
~eric choro stecki@beer.com

     
Добавлено: 22.08.2013
Другие материалы по этой песне:
  • Аккорды и текст

Страница создана 22.08.2013
http://primanota.ru/lenny-kravitz/get-away-chords.htm
Привет, Гость.
Предлагаем пройти революционный курс по гитаре.
Подарок от PrimaNota.Ru, забирай!