PrimaNota.ru - самый крупный в мире бесплатный архив песенных текстов, аккордов, табулатур и нот


Lenna - Huvasti Maa - таба, видео

Регистрация Запомнить меня
Войти через:  Facebook Google Twitter Vk Yandex Mail.ru

Lenna - Huvasti Maa - таба, видео

Печатать
Просмотров: 86
http://lenna.ee/


Lenna

"Hüvasti maa"




G  Am Bb   C           C  Bm  Am
algab tee, ei tea kuhu viib
      Am/G           Am/D
on su orbiidile mind paisanud voog
G    Am Bb    C        C  Bm  Am
hüvasti jääd, kalliks lõpuni
         Am/G            Am/D
on hinge jäänud vaid üks ainuke soov


G       Bm         Dm7    C
Hüvasti maa, algab kosmoselend
G       Bm   Dm7         C     
hüvasti maa, hoidke siis end
    D#7
kui saad, hüvasti maa


G   Am Bb    C          Bm  Am
Vaatan veel, silmis pisada???
           Am/G       Am/D
kuis eemal kaugenevad sinised veed
G    Am Bb   C               Bm  Am 
hüvasti jää, hoida sind ei saa
            Am/G         Am/D    
kuid viimne suudlus koju leidmas on tee


G       Bm         Dm7    C
hüvasti maa, algab kosmoselend
G       Bm   Dm7        C    
hüvasti maa, hoida siis end
    D#7   G#   D#7  G#
kui saad
        G     Bm    Dm7    C
hüvasti maa

G   Bm    Dm7   C
G   Bm    Dm7   C
G   Bm    Dm7   C

Am  G  F#m7    
G  F#m7  Em 
Dm7 C Dm7
E5
C Dm7 Em F
C Dm7 Em F
G#  D#7


        G   Bm   Dm7   C   G   Bm   Dm7  C  G
hüvasti maa 
        Bm      Dm7      C    G
hüvasti maa, ma tervitan sind
        Bm   Dm7    C
hüvasti maa, mäleta mind
    G    
kui saad

kui saad

kui saad


---------

paar kidrakäiku:


E:----------------------11-10-------8h10p8-7h8p7-5---------------------11-10-|
B:----------------10-12------------------------------------------10-12-------|
G:-----------8-11-------------------------------------------8-11-------------|
D:--------10---------------------------------------------10------------------|
A:---9-12-------------------------------------------9-12---------------------|
E:---------------------------------------------------------------------------|
  ...paisanud                   ...lõpuni        ...ainuke soov


     D#7                G#
E:----------------------------------------------------|
B:----------------------------7-9-7-------------------|
G:---------6-8-6----------5-8-------8-5---------------|
D:-----5-8-------8-5----6-----------------------------|
A:---6------------------------------------------------|
E:----------------------------------------------------|



---------

Vahemäng:

   G     Bm Dm7  C  G      Bm Dm7 C        G     Bm      Dm7     C
E:----------------------------------------------------------------------|
B:-----------------------------------------------------------12-15-15---|
G:--4-5-7--7--9-12--12----14--------14-12-14-16---12-14-12-14-----------|
D:---------------------12-----------------------------------------------|
A:----------------------------------------------------------------------|
E:----------------------------------------------------------------------|

          G         Bm              Dm7                   C
E:--12-10-12-7h8h10-----7-8-10-8-10-15--------17-------19----------|
B:--------------------------------------15h17----15h17-------------|
G:-----------------------------------------------------------------|
D:-----------------------------------------------------------------|
A:-----------------------------------------------------------------|
E:-----------------------------------------------------------------|

    Am           G               F#m7                          G               
E:--10s12-----------------------------------------------------------10-12-15-14p12p10---|
B:---------15s10s12--10s12-10----10-----------------------10--10s12---------------------|
G:----------------------------12---------------9h11s12--11--11--------------------------|
D:---------------------------------12-12-12---------------------------------------------|
A:--------------------------------------------------------------------------------------|
E:--------------------------------------------------------------------------------------|

   F#m7                   Em                          Dm7       C       Dm7
E:-15-17-s20--19p17-19p17p15---12p10-12-15---15-17s19-17--19p17p15--s24-22----|
B:----------------------------------------------------------------------------|
G:----------------------------------------------------------------------------|
D:----------------------------------------------------------------------------|
A:----------------------------------------------------------------------------|
E:----------------------------------------------------------------------------|

                    E5
E:--19-19-20-19-17--19--17-13h15p13-12---10-12-13-12-10-12---------------------------|
B:---------------------------------------------------------12-12-12--10-12-13-12-10--|
G:-----------------------------------------------------------------------------------|
D:-----------------------------------------------------------------------------------|
A:-----------------------------------------------------------------------------------|
E:-----------------------------------------------------------------------------------|

   C  Dm7             Em        F         C         Dm7        Em          F 
E:----10h12p10-----10-12--10-12-13-15-17-s19-20-15--12-10-s17--15-12-10-12----|
B:-13-----------13------------------------------------------------------------|
G:----------------------------------------------------------------------------|
D:----------------------------------------------------------------------------|
A:----------------------------------------------------------------------------|
E:----------------------------------------------------------------------------|

                       G#              D#7
E:--10h12h15-15-17-15--16--18--20--22----------------|
B:---------------------------------------------------|
G:---------------------------------------------------|
D:---------------------------------------------------|
A:---------------------------------------------------|
E:---------------------------------------------------|
Добавлено: 30.07.2013
Другие материалы по этой песне:
  • Аккорды и текст

Страница создана 30.07.2013
http://primanota.ru/lenna/huvasti-maa-chords.htm
Привет, Гость.
Предлагаем пройти революционный курс по гитаре.
Подарок от PrimaNota.Ru, забирай!