PrimaNota.ru - самый крупный в мире бесплатный архив песенных текстов, аккордов, табулатур и нот


Ленинград - Я И.о. Б.г. - аккорды и текст, видео

Регистрация Запомнить меня
Войти через:  Facebook Google Twitter Vk Yandex Mail.ru

Ленинград - Я И.о. Б.г. - аккорды и текст, видео

Печатать
Просмотров: 693
Уроки эстрадного вокала в Санкт-Петербурге
Я И.о. Б.г.
Ленинград
Филл:

E|-------------------------------|
B|-------------------------------|
G|-------------------------------|
D|----------5---5----------------|
A|---5-6-7----7---7-6-5--5-7-5-8-|
E|-7-----------------------------|
-  это для тех, кто будет играть
С баррэ, остальные могут играть так:

E|-------------------------------|
B|-------------------------------|
G|----------0---0----------------|
D|---0-1-2----2---2-1-0--0-2-0-3-|
A|-2-----------------------------|
E|-------------------------------|

Вообще этот рифф звучит на протяженнии
Всего припева (что нетрудно заметить :)

Am
Все потеряло смысл,
Am                 Dm
Бьюсь головой об пол
Сегодня Боря Ельцын
На пенсию ушел.

Am       Dm
Боря, вернись!
Боря, вернись!
Боря, вернись!
Боря, вернись!

[Филл]

Все потеряло смысл,
Бьюсь головой об пол
Сегодня Майкл Джексон
На пенсию ушел

Майкл, вернись!
Майкл, вернись!
Майкл, вернись!
Джонсон, вернись!

[Филл]

Я и.о., я и.о. БГ!
Я и.о., я и.о. БГ!
Я и.о., я и.о. БГ!
Я и.о., я и.о. БГ!

[Филл]
Добавлено: 28.04.2012
Другие материалы по этой песне:
  • Аккорды и текст

Страница создана 28.04.2012
http://primanota.ru/leningrad-2/ya-io-bg-chords.htm
Привет, Гость.
Предлагаем пройти революционный курс по гитаре.
Подарок от PrimaNota.Ru, забирай!