PrimaNota.ru - самый крупный в мире бесплатный архив песенных текстов, аккордов, табулатур и нот


Leng Tche - Strangled By Underwear - таба, видео

Регистрация Запомнить меня
Войти через:  Facebook Google Twitter Vk Yandex Mail.ru

Leng Tche - Strangled By Underwear - таба, видео

Печатать
Просмотров: 100
Leng Tch'e: Strangled by Underwear
Off of Death by A Thousand Cuts
(c) The Spew
Tabbed by Girdnygrind (Alex)

Suffixes:
. = Palm Mute
ph = Pinch Harmonic
b = Bend

(0:00) Riff A:
B |--------------------------------|
F#|--------------------------------|
D |--------------------------------|
A |0-3-0-4-0-3-1-4--0-3-0-4-0-3-1-4|
E |0-3-0-4-0-3-1-4--0-3-0-4-0-3-1-4|
A |0-3-0-4-0-3-1-4--0-3-0-4-0-3-1-4|(x1)

(0:07) Riff B:
B |------------------------------------|
F#|------------------------------------|
D |------------------------------------|
A |4-3-5-4-4-3-5-4-4-3-5-4-0-2-3--0-2-3|
E |4-3-5-4-4-3-5-4-4-3-5-4-0-2-3--0-2-3|
A |4-3-5-4-4-3-5-4-4-3-5-4-0-2-3--0-2-3|(x2)

(0:14) Riff A: (x1)

(0:22) Riff B: (x2)

(0:29) Pre-Riff C:
B |-------------|
F#|-------------|
D |-------------|
A |0-0-0-0-0-0-0|
E |0-0-0-0-0-0-0|
A |0-0-0-0-0-0-0|(x1)
     . . . . . .

(0:30) Riff Ca:
B |-----------------------------------------------|
F#|-----------------------------------------------|
D |-----------------------------------------------|
A |3-2-2-2-2-2-2-6-5-0-0-0-0-0-0-0-3-2-2-2-2-2-2-1|
E |3-2-2-2-2-2-2-6-5-0-0-0-0-0-0-0-3-2-2-2-2-2-2-1|
A |3-2-2-2-2-2-2-6-5-0-0-0-0-0-0-0-3-2-2-2-2-2-2-1|(x1)
       . .   . .       . . . . . .     . .   . .

B |--------------------------------------------------------------|
F#|--------------------------------------------------------------|
D |--------------------------------------------------------------|
A |0-0-0-0-0-0-0-3-2-2-2-2-2-2-6-5-0-0-0-0-0-0-0-3-2-2-2-2-2-2---|
E |0-0-0-0-0-0-0-3-2-2-2-2-2-2-6-5-0-0-0-0-0-0-0-3-2-2-2-2-2-2-1b|
A |0-0-0-0-0-0-0-3-2-2-2-2-2-2-6-5-0-0-0-0-0-0-0-3-2-2-2-2-2-2---|(x1)
     . . . . . .     . .   . .       . . . . . .     . .    . .

B |-------------------------------------------------------------|
F#|-------------------------------------------------------------|
D |-------------------------------------------------------------|
A |0-0-0-0-0-0-0-3-2-2-2-2-2-2-6-5-0-0-0-0-0-0-0-3-2-2-2-2-2-2-1|
E |0-0-0-0-0-0-0-3-2-2-2-2-2-2-6-5-0-0-0-0-0-0-0-3-2-2-2-2-2-2-1| 
A |0-0-0-0-0-0-0-3-2-2-2-2-2-2-6-5-0-0-0-0-0-0-0-3-2-2-2-2-2-2-1|(x2)
     . . . . . .     . .   . .       . . . . . .     . .    . .

(0:52) Riff B: (x4)

(1:06) Riff A: (x1)

(1:14) Riff B: (x2)
Добавлено: 30.06.2012
Другие материалы по этой песне:
  • Аккорды и текст

Страница создана 30.06.2012
http://primanota.ru/leng-tche/strangled-by-underwear-chords.htm
Привет, Гость.
Предлагаем пройти революционный курс по гитаре.
Подарок от PrimaNota.Ru, забирай!