PrimaNota.ru - самый крупный в мире бесплатный архив песенных текстов, аккордов, табулатур и нот


Len - You Cant Stop The Bum Rush - таба, видео

Регистрация Запомнить меня
Войти через:  Facebook Google Twitter Vk Yandex Mail.ru

Len - You Cant Stop The Bum Rush - таба, видео

Печатать
Просмотров: 88
I'm re-submitting it for that stupid faggot that denied just because i put bumrush as 
word stupid fuck

standard tuning on whole album

==========Steal My Sunshine==========

Just play these chords over throughout the whole song
|-0----0----7--------|
|-2----0----7--------|
|-2----1----8--------|
|-2----2----9--------|
|-0----2----9--------|
|------0----7--------|

==========Cryptik Souls Crew==========

Still working on it

==========Man of the Year==========

No guitar

==========Beautiful Day==========

No guitar

==========The Hard Disk Approach==========

No guitar

==========Hot Rod Monster Jam==========

There's two guitars in this song here's guitar 1
|---------------------------------------------------------------------------------|
|-9h11-9h11-9h11-9h11-9p8-9p8-9p8-9p8-9h11-9h11-9h11-9h11-10h12-10h12-10h12-10h12-|
|---------------------------------------------------------------------------------|
|---------------------------------------------------------------------------------|
|---------------------------------------------------------------------------------|
|---------------------------------------------------------------------------------|

==========Cold Chillin'==========

No guitar

==========Feelin' Alright==========

Intro (It's not a guitar it's just some stuff they programmed into the song but this 
like it)
|-----------|
|-------7*--|
|---7*-7*---|
|--7*-------|
|-7*--------|
|-----------|

Intro/Chorus
|---------------------|
|---------------------|
|-3----7--10----10----|
|-3----7--10--10--10--|
|-1----5---8--------8-|
|---------------------|

Verse
|---------------|
|---------------|
|-3----7--10----|
|-3----7--10----|
|-1----5---8----|
|---------------|

Solo
|-11v-10v-12v--------------------------------|
|--------------------------------------------|
|---------------16-15-16--16-15-16--16-15-16-|
|-------------14--------14--------14---------|
|--------------------------------------------|
|--------------------------------------------|

|---------------------------------------------------------------------------------------------|
|-------------------------------------------------------13-11-11-9-9-7-8-6-7-5-6-4-5-3-4-2-3--|
|---18-17-18--18-17-18--18-17-18-18-20-18-20-18-20-18-20------------------------------------2-|
|-16--------16--------16----------------------------------------------------------------------|
|---------------------------------------------------------------------------------------------|
|---------------------------------------------------------------------------------------------|

|---------------------------------------------------------------------|
|---------------------------------------------------------------------|
|-2-4-3-5-4-6-5-7-6-8-7-9-9-11-11-13-13-15-14-16-15-17-16-18----------|
|------------------------------------------------------------10/0-7/0-|
|---------------------------------------------------------------------|
|---------------------------------------------------------------------|

==========Cheekybugger==========

Verse
|----------------------------|
|----------------------------|
|-7--7--5-5-5-3--3-3-3-3-3-3-|
|-7--7--5-5-5-3--3-3-3-3-3-3-|
|-5--5--3-3-3-1--1-1-1-1-1-1-|
|----------------------------|

Chorus
|---------------------------------|
|---------------------------------|
|---------------------------------|
|-7-7-7-7-5-5-5-5-3-3-3-3-3-3-3-3-|
|-7-7-7-7-5-5-5-5-3-3-3-3-3-3-3-3-|
|-5-5-5-5-3-3-3-3-1-1-1-1-1-1-1-1-|

After chorus/Rhythm Behind Solo
|----------------------------|
|----------------------------|
|----------------------------|
|-7--7--5-5-5-3--3-3-3-3-3-3-|
|-7--7--5-5-5-3--3-3-3-3-3-3-|
|-5--5--3-3-3-1--1-1-1-1-1-1-|

Solo
|-------------------------------------------------------|
|-7-7-6-6-6-8--8-9-8-8-8-8-8-7-7-6-6-6-8--8-9-8-8-8-8-8-|
|-------------------------------------------------------|
|-------------------------------------------------------|
|-------------------------------------------------------|
|-------------------------------------------------------|

|---------------------------------------------------|
|-7-7-6-6-6-8--8-9-8-8-8-8-8-7-7-6-6-6-8------------|
|-----------------------------------------9fb-9p7h9-|
|---------------------------------------------------|
|---------------------------------------------------|
|---------------------------------------------------|

Riff before verse 3
|-----------------------------------------------------------------|
|-----------------------------------------------------------------|
|-----------------------------------------------------------------|
|-7-7-7-7-7-7-7-7-7-7-7-7-7-7-7-7-4-4-4-4-4-4-4-4-4-4-4-4-4-4-4-4-|
|-7-7-7-7-7-7-7-7-7-7-7-7-7-7-7-7-4-4-4-4-4-4-4-4-4-4-4-4-4-4-4-4-|
|-5-5-5-5-5-5-5-5-5-5-5-5-5-5-5-5-2-2-2-2-2-2-2-2-2-2-2-2-2-2-2-2-|

==========Big Meanie==========

Intro/Outro
|---------------|
|-----8-8-----6-|
|-----8-----6---|
|-6-6-----4-----|
|---------------|
|---------------|

==========Junebug==========

Use these natural harmonics througout the whole song it's easy to figure out where they 
and end
|--------------------------|
|--------------------------|
|--------------------------|
|-7*----5*----7*----12*----|
|-7*----5*----7*----12*----|
|--------------------------|

==========Crazy 'Cause I Believe (Early Morning Sunshine)==========

No music
Добавлено: 27.07.2013
Другие материалы по этой песне:
  • Аккорды и текст

Страница создана 27.07.2013
http://primanota.ru/len/you-cant-stop-the-bum-rush-chords.htm
Привет, Гость.
Предлагаем пройти революционный курс по гитаре.
Подарок от PrimaNota.Ru, забирай!