PrimaNota.ru - самый крупный в мире бесплатный архив песенных текстов, аккордов, табулатур и нот


Len - The Diary Of The Madmen - таба, видео

Регистрация Запомнить меня
Войти через:  Facebook Google Twitter Vk Yandex Mail.ru

Len - The Diary Of The Madmen - таба, видео

Печатать
Просмотров: 64
the whole album is done in standard tuning

===============Intro===============

No Guitar

===============We Are===============

Verse (there's been a lot of shit we've been through, so we decided to write this song)
|---------------------------------|
|-Palm Mute-----------------------|
|---------------------------------|
|-6-6-6-6-6-6-6-6-6-6-6-6-6-6-6-6-|
|-6-6-6-6-6-6-6-6-6-6-6-6-6-6-6-6-|
|-4-4-4-4-4-4-4-4-4-4-4-4-4-4-4-4-|

(We wanna tell you what it's like for every bad shit to go wrong)
|---------------------------------|
|-Palm Mute-----------------------|
|---------------------------------|
|-6-6-6-6-6-6-6-6-6-6-6-6-6-6-6-6-|
|-6-6-6-6-6-6-6-6-6-6-6-6-6-6-6-6-|
|-4-4-4-4-4-4-4-4-4-4-4-4-4-4-4-4-|

(we've been kicked in the ass, felt the aftermath when I come down we're fucking thru)
|---------------------------------|
|-Palm Mute-----------------------|
|---------------------------------|
|-9-9-9-9-9-9-9-9-9-9-9-9-9-9-9-9-|
|-9-9-9-9-9-9-9-9-9-9-9-9-9-9-9-9-|
|-7-7-7-7-7-7-7-7-7-7-7-7-7-7-7-7-|

(and it's funny how were not the only one's who got a lot of this shit from you)
|---------------------------------|
|-Palm Mute-----------------------|
|---------------------------------|
|-6-6-6-6-6-6-6-6-6-6-6-6-6-6-6-6-|
|-6-6-6-6-6-6-6-6-6-6-6-6-6-6-6-6-|
|-4-4-4-4-4-4-4-4-4-4-4-4-4-4-4-4-|

(now with this in mind we've realized one thing we'd like to share with you)
|---------------------------------|
|-Palm Mute-----------------------|
|---------------------------------|
|-9-9-9-9-9-9-9-9-9-9-9-9-9-9-9-9-|
|-9-9-9-9-9-9-9-9-9-9-9-9-9-9-9-9-|
|-7-7-7-7-7-7-7-7-7-7-7-7-7-7-7-7-|

(when it all falls apart don't let 'em fuck you up and knock 'em down if you have to)
|-------|
|-------|
|-------|
|-9p----|
|-9p----|
|-7p----|

Pre Chorus (we are l----e----------|n don't fuck with us/ 'cause we drink too much)
|----------------------------------|
|----------------------------------|
|----------------------------------|
|-6-6-6-6-6-6-6-6-6-6-6-6-6-6-6-6--|
|-6-6-6-6-6-6-6-6-6-6-6-6-6-6-6-6--|
|-4-4-4-4-4-4-4-4-4-4-4-4-4-4-4-4--|

===============People (Come Together)===============

No Guitar

===============We Be Who We Be===============

Intro (come on over 'cause we're having a party)
|---------------------------------|
|---------------------------------|
|---------------------------------|
|-4-4-4-4-4-4-4-4-6-6-6-6-6-6-6-6-|
|-4-4-4-4-4-4-4-4-6-6-6-6-6-6-6-6-|
|-2-2-2-2-2-2-2-2-4-4-4-4-4-4-4-4-|

|---------------------------------|
|---------------------------------|
|---------------------------------|
|-7-7-7-7-7-7-7-7-9-9-9-9-9-9-9-9-|
|-7-7-7-7-7-7-7-7-9-9-9-9-9-9-9-9-|
|-5-5-5-5-5-5-5-5-7-7-7-7-7-7-7-7-|

Verse (We never look into the summer shining wind)
|---------------------------------|
|---------------------------------|
|---------------------------------|
|---------------------------------|
|-7-7-7-7-7-7-7-7-7-7-7-7-6-6-9-9-|
|-5-5-5-5-5-5-5-5-5-5-5-5-4-4-7-7-|
  . . . . . . . . . . . .

===============Good Ol' Days===============

It's basically this throughout
|----------------------|
|----------------------|
|---------5--5---------|
|-5--6-7--0-----7-6--5-|
|--------------------0-|
|----------------------|

Fill before Sharon starts to sing I'm going back to the good ol' days (I don't know what 
though)
|----------|
|----------|
|----------|
|-------11-|
|-7h9-10---|
|----------|

===============It's a Brother Sister Thing===============

Intro
|--------------------------------|
|--------------------------------|
|-10--3--8-8-8-3--10--3--8-8-8-3-|
|-11--4--9-9-9-4--11--4--9-9-9-4-|
|-11--4--9-9-9-4--11--4--9-9-9-4-|
|--9--2--7-7-7-2---9--2--7-7-7-2-|

|-----------------------|
|-----------------------|
|-10--3--8-8-8-3------8-|
|-11--4--9-9-9-4-<7>--9-|
|-11--4--9-9-9-4-<7>--9-|
|--9--2--7-7-7-2-<7>--7-|

Verse
|--------------------------------|
|--------------------------------|
|-10--3--8-8-8-3--10--3--8-8-8-3-|
|-11--4--9-9-9-4--11--4--9-9-9-4-|
|-11--4--9-9-9-4--11--4--9-9-9-4-|
|--9--2--7-7-7-2---9--2--7-7-7-2-|


|--------------------------------|
|--------------------------------|
|-10--3--8-8-8-3--10--3--8-8-8-3-|
|-11--4--9-9-9-4--11--4--9-9-9-4-|
|-11--4--9-9-9-4--11--4--9-9-9-4-|
|--9--2--7-7-7-2---9--2--7-7-7-2-|

Pre Chorus
|---------------------------------|
|---------------------------------|
|-6-6-6-6-6-6-6-6-6-6-6-6-6-6-6-6-|
|-7-7-7-7-7-7-7-7-7-7-7-7-7-7-7-7-|
|-7-7-7-7-7-7-7-7-7-7-7-7-7-7-7-7-|
|-5-5-5-5-5-5-5-5-5-5-5-5-5-5-5-5-|

|---------------------------------|
|---------------------------------|
|-6-6-6-6-6-6-6-6-6-6-6-6-6-6-6-6-|
|-7-7-7-7-7-7-7-7-7-7-7-7-7-7-7-7-|
|-7-7-7-7-7-7-7-7-7-7-7-7-7-7-7-7-|
|-5-5-5-5-5-5-5-5-5-5-5-5-5-5-5-5-|

|--------------------------------|
|--------------------------------|
|-10--3--8-8-8-3--10--3--8-8-8-3-|
|-11--4--9-9-9-4--11--4--9-9-9-4-|
|-11--4--9-9-9-4--11--4--9-9-9-4-|
|--9--2--7-7-7-2---9--2--7-7-7-2-|

|---------------------------------|
|---------------------------------|
|-4-4-4-4-4-4-4-4-4-4-4-4-4-4-4-4-|
|-5-5-5-5-5-5-5-5-5-5-5-5-5-5-5-5-|
|-5-5-5-5-5-5-5-5-5-5-5-5-5-5-5-5-|
|-3-3-3-3-3-3-3-3-3-3-3-3-3-3-3-3-|

|---------------------------------|
|---------------------------------|
|-4-4-4-4-4-4-4-4-4-4-4-4-4-4-4-4-|
|-5-5-5-5-5-5-5-5-5-5-5-5-5-5-5-5-|
|-5-5-5-5-5-5-5-5-5-5-5-5-5-5-5-5-|
|-3-3-3-3-3-3-3-3-3-3-3-3-3-3-3-3-|

Chorus
|---------------------------------|
|---------------------------------|
|-4-4-4-4-4-4-4-4-6-6-6-6-6-6-6-6-|
|-5-5-5-5-5-5-5-5-7-7-7-7-7-7-7-7-|
|-5-5-5-5-5-5-5-5-7-7-7-7-7-7-7-7-|
|-3-3-3-3-3-3-3-3-5-5-5-5-5-5-5-5-|


|-----------------------------------------|
|-----------------------------------------|
|-8-8-8-8-8-8-8-8-10-10-10-10-10-10-10-10-|
|-9-9-9-9-9-9-9-9-11-11-11-11-11-11-11-11-|
|-9-9-9-9-9-9-9-9-11-11-11-11-11-11-11-11-|
|-7-7-7-7-7-7-7-7--9--9--9--9--9--9--9--9-|

===============Cool It Now================

Coming Soon!

===============Get Down===============

No Guitar

===============Another Crazy Nite===============

No Guitar

===============Fight===============

Intro/Verse 1 and 2/Chorus
|---------------------------------|
|-Palm Mute-----------------------|
|---------------------------------|
|-7-7-7-7-7-7-7-7-7-7-7-7-7-7-7-7-|
|-5-5-5-5-5-5-5-5-5-5-5-5-5-5-5-5-|
|---------------------------------|

Verse 3
|---------------------------------------------|
|---------------------------------------------|
|---------------------------------------------|
|-7-7--------7-7--------7-7--------7-7--------|
|-7-7--------7-7--------7-7--------7-7--------|
|-5-5--------5-5--------5-5--------5-5--------|

===============Kookoo Docks===============

No Guitar

===============Funnel===============

No Guitar

===============the Royal Screwjob===============

Intro
|---------------------------------|
|-Palm-Mute-----------------------|
|---------------------------------|
|-9-9-9-9-9-9-9-9-9-9-9-9-9-9-9-9-|
|-7-7-7-7-7-7-7-7-7-7-7-7-7-7-7-7-|
|---------------------------------|

===============Let It Slide===============

Coming Soon

===============Better Days===============

Intro
|---------------------------------|
|---------------------------------|
|---------------------------------|
|-----4-4-----4-4-----4-4-5-5-4-4-|
|-2-2-----2-2-----2-2-------------|
|---------------------------------|

Verse/Chorus
|---------------------------------|
|-Palm Mute-----------------------|
|---------------------------------|
|---------------------------------|
|-2-2-2-2-4-4-4-4-2-2-2-2-4-4-4-4-|
|---------------------------------|

===============Dante's Inferno===============

No Guitar

===============Outro===============

No Guitar

===============Video Killed the Radio Star===============

Verse (I heard you on the wireless)
|---------------------------------|
|-Palm Mute-----------------------|
|---------------------------------|
|-9-9-9-9-4-4-4-4-7-7-7-7-7-7-7-7-|
|-9-9-9-9-4-4-4-4-7-7-7-7-7-7-7-7-|
|-7-7-7-7-2-2-2-2-5-5-5-5-5-5-5-5-|

(They took the credit for your second symphony)
|-----------------------------|
|-----------------------------|
|-----------------------------|
|-9---9---4---4---7--7--7--7--|
|-9---9---4---4---7--7--7--7--|
|-7---7---2---2---5--5--5--5--|

Pre Chorus (I met your children)
|-------------------------|
|-------------------------|
|-------------------------|
|-8--8-6--4-4-4-4-4-4-4-4-|
|-8--8-6--4-4-4-4-4-4-4-4-|
|-8--8-6--4-4-4-4-4-4-4-4-|
         P.M.. . . . . .

Chorus (video killed the radio star)
|-----------------------------|
|-----------------------------|
|-----------------------------|
|-7--7-7-9--9-9-7--7-7-5--5-5-|
|-7--7-7-9--9-9-7--7-7-5--5-5-|
|-5--5-5-7--7-7-5--5-5-3--3-3-|

(video killed the radio star)
|-----------------------------|
|-----------------------------|
|-----------------------------|
|-7--7-7-9--9-9-7--7-7-5--5-5-|
|-7--7-7-9--9-9-7--7-7-5--5-5-|
|-5--5-5-7--7-7-5--5-5-3--3-3-|

(In my mind and in my car)
|-----------------------------|
|-----------------------------|
|-----------------------------|
|-7--7-7-9--9-9-7--7-7-5--5-5-|
|-7--7-7-9--9-9-7--7-7-5--5-5-|
|-5--5-5-7--7-7-5--5-5-3--3-3-|

(we can't rewind we've gone too far)
|-----------------------------|
|-----------------------------|
|-----------------------------|
|-7--7-7-9--9-9-7--7-7-5--5-5-|
|-7--7-7-9--9-9-7--7-7-5--5-5-|
|-5--5-5-7--7-7-5--5-5-3--3-3-|

(OOH-OOOH-OH-OH-OH-OH)
|----------------------------------|
|----------------------------------|
|----------------------------------|
|-7--7-7-9-9-9--6--4-4-4-4-4-4-4-4-|
|-7--7-7-9-9-9--6--4-4-4-4-4-4-4-4-|
|-5--5-5-7-7-7--4--4-4-4-4-4-4-4-4-|
                  P.M.. . . . . .

Bridge (oooh-oh ooh-oh the radio star)
|---------------------------------|
|-Palm Mute-----------------------|
|---------------------------------|
|-7-7-7-7-7-7-7-7-9-9-9-9-9-9-9-9-|
|-5-5-5-5-5-5-5-5-7-7-7-7-7-7-7-7-|
|---------------------------------|

|---------------------------------|
|-Palm Mute-----------------------|
|---------------------------------|
|-6-6-6-6-6-6-6-6-6-6-6-6-6-6-6-6-|
|-4-4-4-4-4-4-4-4-4-4-4-4-4-4-4-4-|
|---------------------------------|
Добавлено: 07.09.2013
Другие материалы по этой песне:
  • Аккорды и текст

Страница создана 07.09.2013
http://primanota.ru/len/the-diary-of-the-madmen-chords.htm
Привет, Гость.
Предлагаем пройти революционный курс по гитаре.
Подарок от PrimaNota.Ru, забирай!